  0
SECTION
  2
HEADER
  9
$ACADVER
  1
AC1015
  9
$ACADMAINTVER
 70
     6
  9
$DWGCODEPAGE
  3
ANSI_1252
  9
$INSBASE
 10
0.0
 20
0.0
 30
0.0
  9
$EXTMIN
 10
0.0
 20
0.0
 30
0.0
  9
$EXTMAX
 10
297.0000610351563
 20
210.0
 30
0.0
  9
$LIMMIN
 10
0.0
 20
0.0
  9
$LIMMAX
 10
297.0
 20
210.0
  9
$ORTHOMODE
 70
     0
  9
$REGENMODE
 70
     1
  9
$FILLMODE
 70
     1
  9
$QTEXTMODE
 70
     0
  9
$MIRRTEXT
 70
     1
  9
$LTSCALE
 40
15.0
  9
$ATTMODE
 70
     1
  9
$TEXTSIZE
 40
0.2
  9
$TRACEWID
 40
0.05
  9
$TEXTSTYLE
  7
STANDARD
  9
$CLAYER
  8
0
  9
$CELTYPE
  6
BYLAYER
  9
$CECOLOR
 62
   256
  9
$CELTSCALE
 40
1.0
  9
$DISPSILH
 70
     0
  9
$DIMSCALE
 40
1.0
  9
$DIMASZ
 40
0.18
  9
$DIMEXO
 40
0.0625
  9
$DIMDLI
 40
0.38
  9
$DIMRND
 40
0.0
  9
$DIMDLE
 40
0.0
  9
$DIMEXE
 40
0.18
  9
$DIMTP
 40
0.0
  9
$DIMTM
 40
0.0
  9
$DIMTXT
 40
0.18
  9
$DIMCEN
 40
0.09
  9
$DIMTSZ
 40
0.0
  9
$DIMTOL
 70
     0
  9
$DIMLIM
 70
     0
  9
$DIMTIH
 70
     1
  9
$DIMTOH
 70
     1
  9
$DIMSE1
 70
     0
  9
$DIMSE2
 70
     0
  9
$DIMTAD
 70
     0
  9
$DIMZIN
 70
     0
  9
$DIMBLK
  1

  9
$DIMASO
 70
     1
  9
$DIMSHO
 70
     1
  9
$DIMPOST
  1

  9
$DIMAPOST
  1

  9
$DIMALT
 70
     0
  9
$DIMALTD
 70
     2
  9
$DIMALTF
 40
25.4
  9
$DIMLFAC
 40
1.0
  9
$DIMTOFL
 70
     0
  9
$DIMTVP
 40
0.0
  9
$DIMTIX
 70
     0
  9
$DIMSOXD
 70
     0
  9
$DIMSAH
 70
     0
  9
$DIMBLK1
  1

  9
$DIMBLK2
  1

  9
$DIMSTYLE
  2
STANDARD
  9
$DIMCLRD
 70
     0
  9
$DIMCLRE
 70
     0
  9
$DIMCLRT
 70
     0
  9
$DIMTFAC
 40
1.0
  9
$DIMGAP
 40
0.09
  9
$DIMJUST
 70
     0
  9
$DIMSD1
 70
     0
  9
$DIMSD2
 70
     0
  9
$DIMTOLJ
 70
     1
  9
$DIMTZIN
 70
     0
  9
$DIMALTZ
 70
     0
  9
$DIMALTTZ
 70
     0
  9
$DIMUPT
 70
     0
  9
$DIMDEC
 70
     4
  9
$DIMTDEC
 70
     4
  9
$DIMALTU
 70
     2
  9
$DIMALTTD
 70
     2
  9
$DIMTXSTY
  7
STANDARD
  9
$DIMAUNIT
 70
     0
  9
$DIMADEC
 70
     0
  9
$DIMALTRND
 40
0.0
  9
$DIMAZIN
 70
     0
  9
$DIMDSEP
 70
    46
  9
$DIMATFIT
 70
     3
  9
$DIMFRAC
 70
     0
  9
$DIMLDRBLK
  1

  9
$DIMLUNIT
 70
     2
  9
$DIMLWD
 70
    -2
  9
$DIMLWE
 70
    -2
  9
$DIMTMOVE
 70
     0
  9
$LUNITS
 70
     2
  9
$LUPREC
 70
     4
  9
$SKETCHINC
 40
0.1
  9
$FILLETRAD
 40
0.5
  9
$AUNITS
 70
     0
  9
$AUPREC
 70
     0
  9
$MENU
  1
.
  9
$ELEVATION
 40
0.0
  9
$PELEVATION
 40
0.0
  9
$THICKNESS
 40
0.0
  9
$LIMCHECK
 70
     0
  9
$CHAMFERA
 40
0.5
  9
$CHAMFERB
 40
0.5
  9
$CHAMFERC
 40
1.0
  9
$CHAMFERD
 40
0.0
  9
$SKPOLY
 70
     0
  9
$TDCREATE
 40
2454848.442788761
  9
$TDUCREATE
 40
2454848.359455428
  9
$TDUPDATE
 40
2455010.423706539
  9
$TDUUPDATE
 40
2455010.340373206
  9
$TDINDWG
 40
0.0028774074
  9
$TDUSRTIMER
 40
0.0028774074
  9
$USRTIMER
 70
     1
  9
$ANGBASE
 50
0.0
  9
$ANGDIR
 70
     0
  9
$PDMODE
 70
     0
  9
$PDSIZE
 40
0.0
  9
$PLINEWID
 40
0.0
  9
$SPLFRAME
 70
     0
  9
$SPLINETYPE
 70
     6
  9
$SPLINESEGS
 70
     8
  9
$HANDSEED
  5
487
  9
$SURFTAB1
 70
     6
  9
$SURFTAB2
 70
     6
  9
$SURFTYPE
 70
     6
  9
$SURFU
 70
     6
  9
$SURFV
 70
     6
  9
$UCSBASE
  2

  9
$UCSNAME
  2

  9
$UCSORG
 10
0.0
 20
0.0
 30
0.0
  9
$UCSXDIR
 10
1.0
 20
0.0
 30
0.0
  9
$UCSYDIR
 10
0.0
 20
1.0
 30
0.0
  9
$UCSORTHOREF
  2

  9
$UCSORTHOVIEW
 70
     0
  9
$UCSORGTOP
 10
0.0
 20
0.0
 30
0.0
  9
$UCSORGBOTTOM
 10
0.0
 20
0.0
 30
0.0
  9
$UCSORGLEFT
 10
0.0
 20
0.0
 30
0.0
  9
$UCSORGRIGHT
 10
0.0
 20
0.0
 30
0.0
  9
$UCSORGFRONT
 10
0.0
 20
0.0
 30
0.0
  9
$UCSORGBACK
 10
0.0
 20
0.0
 30
0.0
  9
$PUCSBASE
  2

  9
$PUCSNAME
  2

  9
$PUCSORG
 10
0.0
 20
0.0
 30
0.0
  9
$PUCSXDIR
 10
1.0
 20
0.0
 30
0.0
  9
$PUCSYDIR
 10
0.0
 20
1.0
 30
0.0
  9
$PUCSORTHOREF
  2

  9
$PUCSORTHOVIEW
 70
     0
  9
$PUCSORGTOP
 10
0.0
 20
0.0
 30
0.0
  9
$PUCSORGBOTTOM
 10
0.0
 20
0.0
 30
0.0
  9
$PUCSORGLEFT
 10
0.0
 20
0.0
 30
0.0
  9
$PUCSORGRIGHT
 10
0.0
 20
0.0
 30
0.0
  9
$PUCSORGFRONT
 10
0.0
 20
0.0
 30
0.0
  9
$PUCSORGBACK
 10
0.0
 20
0.0
 30
0.0
  9
$USERI1
 70
     0
  9
$USERI2
 70
     0
  9
$USERI3
 70
     0
  9
$USERI4
 70
     0
  9
$USERI5
 70
     0
  9
$USERR1
 40
0.0
  9
$USERR2
 40
0.0
  9
$USERR3
 40
0.0
  9
$USERR4
 40
0.0
  9
$USERR5
 40
0.0
  9
$WORLDVIEW
 70
     1
  9
$SHADEDGE
 70
     3
  9
$SHADEDIF
 70
    70
  9
$TILEMODE
 70
     1
  9
$MAXACTVP
 70
    64
  9
$PINSBASE
 10
0.0
 20
0.0
 30
0.0
  9
$PLIMCHECK
 70
     0
  9
$PEXTMIN
 10
0.0
 20
0.0
 30
0.0
  9
$PEXTMAX
 10
297.0
 20
210.0
 30
0.0
  9
$PLIMMIN
 10
0.0
 20
0.0
  9
$PLIMMAX
 10
297.0
 20
210.0
  9
$UNITMODE
 70
     0
  9
$VISRETAIN
 70
     1
  9
$PLINEGEN
 70
     0
  9
$PSLTSCALE
 70
     1
  9
$TREEDEPTH
 70
  3020
  9
$CMLSTYLE
  2
STANDARD
  9
$CMLJUST
 70
     0
  9
$CMLSCALE
 40
1.0
  9
$PROXYGRAPHICS
 70
     1
  9
$MEASUREMENT
 70
     0
  9
$CELWEIGHT
370
    -1
  9
$ENDCAPS
280
     0
  9
$JOINSTYLE
280
     0
  9
$LWDISPLAY
290
     0
  9
$INSUNITS
 70
     0
  9
$HYPERLINKBASE
  1

  9
$STYLESHEET
  1

  9
$XEDIT
290
     1
  9
$CEPSNTYPE
380
     0
  9
$PSTYLEMODE
290
     1
  9
$FINGERPRINTGUID
  2
{6D8E5C4C-58A5-4E55-8AD2-4433B680D6CF}
  9
$VERSIONGUID
  2
{80394FFD-4FFF-4EE5-8DD8-5C1AE9DE3CD8}
  9
$EXTNAMES
290
     1
  9
$PSVPSCALE
 40
0.0
  9
$OLESTARTUP
290
     0
  0
ENDSEC
  0
SECTION
  2
CLASSES
  0
CLASS
  1
ACDBDICTIONARYWDFLT
  2
AcDbDictionaryWithDefault
  3
AutoCAD 2000
 90
        0
280
     0
281
     0
  0
CLASS
  1
IMAGEDEF
  2
AcDbRasterImageDef
  3
ISM
 90
        0
280
     0
281
     0
  0
CLASS
  1
RASTERVARIABLES
  2
AcDbRasterVariables
  3
ISM
 90
        0
280
     0
281
     0
  0
CLASS
  1
IMAGE
  2
AcDbRasterImage
  3
ISM
 90
      127
280
     0
281
     1
  0
CLASS
  1
IMAGEDEF_REACTOR
  2
AcDbRasterImageDefReactor
  3
ISM
 90
        1
280
     0
281
     0
  0
CLASS
  1
XRECORD
  2
AcDbXrecord
  3
AutoCAD 2000
 90
    32768
280
     0
281
     0
  0
CLASS
  1
LWPOLYLINE
  2
AcDbPolyline
  3
AutoCAD 2000
 90
    32768
280
     0
281
     1
  0
CLASS
  1
HATCH
  2
AcDbHatch
  3
AutoCAD 2000
 90
    32768
280
     0
281
     1
  0
CLASS
  1
ACDBPLACEHOLDER
  2
AcDbPlaceHolder
  3
AutoCAD 2000
 90
        0
280
     0
281
     0
  0
CLASS
  1
LAYOUT
  2
AcDbLayout
  3
AutoCAD 2000
 90
        0
280
     0
281
     0
  0
CLASS
  1
DICTIONARYVAR
  2
AcDbDictionaryVar
  3
AutoCAD 2000
 90
        0
280
     0
281
     0
  0
ENDSEC
  0
SECTION
  2
TABLES
  0
TABLE
  2
VPORT
  5
8
330
0
100
AcDbSymbolTable
 70
     2
  0
VPORT
  5
466
330
8
100
AcDbSymbolTableRecord
100
AcDbViewportTableRecord
  2
*Active
 70
     0
 10
0.0
 20
0.0
 11
1.0
 21
1.0
 12
147.072926382207
 22
111.1397612617721
 13
0.0
 23
0.0
 14
0.5
 24
0.5
 15
0.5
 25
0.5
 16
0.0
 26
0.0
 36
1.0
 17
0.0
 27
0.0
 37
0.0
 40
226.1893796279935
 41
1.595959595959596
 42
50.0
 43
0.0
 44
0.0
 50
0.0
 51
0.0
 71
     0
 72
   100
 73
     1
 74
     3
 75
     0
 76
     0
 77
     0
 78
     0
281
     0
 65
     1
110
0.0
120
0.0
130
0.0
111
1.0
121
0.0
131
0.0
112
0.0
122
1.0
132
0.0
 79
     0
146
0.0
  0
ENDTAB
  0
TABLE
  2
LTYPE
  5
5
330
0
100
AcDbSymbolTable
 70
    41
  0
LTYPE
  5
14
330
5
100
AcDbSymbolTableRecord
100
AcDbLinetypeTableRecord
  2
BYBLOCK
 70
     0
  3

 72
    65
 73
     0
 40
0.0
  0
LTYPE
  5
15
330
5
100
AcDbSymbolTableRecord
100
AcDbLinetypeTableRecord
  2
BYLAYER
 70
     0
  3

 72
    65
 73
     0
 40
0.0
  0
LTYPE
  5
16
330
5
100
AcDbSymbolTableRecord
100
AcDbLinetypeTableRecord
  2
CONTINUOUS
 70
     0
  3
Solid line
 72
    65
 73
     0
 40
0.0
  0
LTYPE
  5
2A
330
5
100
AcDbSymbolTableRecord
100
AcDbLinetypeTableRecord
  2
FIN
 70
     0
  3
________________________________
 72
    65
 73
     0
 40
0.0
  0
LTYPE
  5
2B
330
5
100
AcDbSymbolTableRecord
100
AcDbLinetypeTableRecord
  2
MOYEN
 70
     0
  3
________________________________
 72
    65
 73
     0
 40
0.0
  0
LTYPE
  5
2C
330
5
100
AcDbSymbolTableRecord
100
AcDbLinetypeTableRecord
  2
EPAIS
 70
     0
  3
________________________________
 72
    65
 73
     0
 40
0.0
  0
LTYPE
  5
2D
330
5
100
AcDbSymbolTableRecord
100
AcDbLinetypeTableRecord
  2
TIRET
 70
     0
  3
____    ____    ____    ____    ^D
 72
    65
 73
     4
 40
1.0
 49
0.25
 74
     0
 49
-0.25
 74
     0
 49
0.25
 74
     0
 49
-0.25
 74
     0
  0
LTYPE
  5
2E
330
5
100
AcDbSymbolTableRecord
100
AcDbLinetypeTableRecord
  2
POINT
 70
     0
  3
_ _ _ _ _ _ _ _ _ _ _ _ _ _ _ _ ^H
 72
    65
 73
     8
 40
0.5
 49
0.0625
 74
     0
 49
-0.0625
 74
     0
 49
0.0625
 74
     0
 49
-0.0625
 74
     0
 49
0.0625
 74
     0
 49
-0.0625
 74
     0
 49
0.0625
 74
     0
 49
-0.0625
 74
     0
  0
LTYPE
  5
2F
330
5
100
AcDbSymbolTableRecord
100
AcDbLinetypeTableRecord
  2
AXES
 70
     0
  3
_______   _     _______   _     ^D
 72
    65
 73
     4
 40
1.0
 49
0.4375
 74
     0
 49
-0.1875
 74
     0
 49
0.0625
 74
     0
 49
-0.3125
 74
     0
  0
LTYPE
  5
30
330
5
100
AcDbSymbolTableRecord
100
AcDbLinetypeTableRecord
  2
AXESDBLE
 70
     0
  3
_____   _   _   _____   _   _   ^F
 72
    65
 73
     6
 40
1.0
 49
0.3125
 74
     0
 49
-0.1875
 74
     0
 49
0.0625
 74
     0
 49
-0.1875
 74
     0
 49
0.0625
 74
     0
 49
-0.1875
 74
     0
  0
LTYPE
  5
31
330
5
100
AcDbSymbolTableRecord
100
AcDbLinetypeTableRecord
  2
BLEU
 70
     0
  3
________________________________
 72
    65
 73
     0
 40
0.0
  0
LTYPE
  5
32
330
5
100
AcDbSymbolTableRecord
100
AcDbLinetypeTableRecord
  2
VERT
 70
     0
  3
________________________________
 72
    65
 73
     0
 40
0.0
  0
LTYPE
  5
33
330
5
100
AcDbSymbolTableRecord
100
AcDbLinetypeTableRecord
  2
CYAN
 70
     0
  3
________________________________
 72
    65
 73
     0
 40
0.0
  0
LTYPE
  5
34
330
5
100
AcDbSymbolTableRecord
100
AcDbLinetypeTableRecord
  2
ROUGE
 70
     0
  3
________________________________
 72
    65
 73
     0
 40
0.0
  0
LTYPE
  5
35
330
5
100
AcDbSymbolTableRecord
100
AcDbLinetypeTableRecord
  2
VIOLET
 70
     0
  3
________________________________
 72
    65
 73
     0
 40
0.0
  0
LTYPE
  5
36
330
5
100
AcDbSymbolTableRecord
100
AcDbLinetypeTableRecord
  2
JAUNE
 70
     0
  3
________________________________
 72
    65
 73
     0
 40
0.0
  0
LTYPE
  5
37
330
5
100
AcDbSymbolTableRecord
100
AcDbLinetypeTableRecord
  2
NOIR
 70
     0
  3
________________________________
 72
    65
 73
     0
 40
0.0
  0
LTYPE
  5
38
330
5
100
AcDbSymbolTableRecord
100
AcDbLinetypeTableRecord
  2
BLANC
 70
     0
  3
________________________________
 72
    65
 73
     0
 40
0.0
  0
LTYPE
  5
39
330
5
100
AcDbSymbolTableRecord
100
AcDbLinetypeTableRecord
  2
ORANGE
 70
     0
  3
________________________________
 72
    65
 73
     0
 40
0.0
  0
LTYPE
  5
3A
330
5
100
AcDbSymbolTableRecord
100
AcDbLinetypeTableRecord
  2
BRUN
 70
     0
  3
________________________________
 72
    65
 73
     0
 40
0.0
  0
LTYPE
  5
3B
330
5
100
AcDbSymbolTableRecord
100
AcDbLinetypeTableRecord
  2
GRIS
 70
     0
  3
________________________________
 72
    65
 73
     0
 40
0.0
  0
LTYPE
  5
3C
330
5
100
AcDbSymbolTableRecord
100
AcDbLinetypeTableRecord
  2
SYMBOL_C
 70
     0
  3
________________________________
 72
    65
 73
     0
 40
0.0
  0
LTYPE
  5
3D
330
5
100
AcDbSymbolTableRecord
100
AcDbLinetypeTableRecord
  2
SYMBOL_P
 70
     0
  3
________________________________
 72
    65
 73
     0
 40
0.0
  0
LTYPE
  5
3E
330
5
100
AcDbSymbolTableRecord
100
AcDbLinetypeTableRecord
  2
LINE
 70
     0
  3
________________________________
 72
    65
 73
     0
 40
0.0
  0
LTYPE
  5
3F
330
5
100
AcDbSymbolTableRecord
100
AcDbLinetypeTableRecord
  2
LINE_1
 70
     0
  3
________________________________
 72
    65
 73
     0
 40
0.0
  0
LTYPE
  5
40
330
5
100
AcDbSymbolTableRecord
100
AcDbLinetypeTableRecord
  2
LINE_2
 70
     0
  3
________________________________
 72
    65
 73
     0
 40
0.0
  0
LTYPE
  5
41
330
5
100
AcDbSymbolTableRecord
100
AcDbLinetypeTableRecord
  2
LINE_3
 70
     0
  3
________________________________
 72
    65
 73
     0
 40
0.0
  0
LTYPE
  5
42
330
5
100
AcDbSymbolTableRecord
100
AcDbLinetypeTableRecord
  2
LINE_4
 70
     0
  3
________________________________
 72
    65
 73
     0
 40
0.0
  0
LTYPE
  5
43
330
5
100
AcDbSymbolTableRecord
100
AcDbLinetypeTableRecord
  2
LINE_5
 70
     0
  3
________________________________
 72
    65
 73
     0
 40
0.0
  0
LTYPE
  5
44
330
5
100
AcDbSymbolTableRecord
100
AcDbLinetypeTableRecord
  2
LINE_6
 70
     0
  3
________________________________
 72
    65
 73
     0
 40
0.0
  0
LTYPE
  5
45
330
5
100
AcDbSymbolTableRecord
100
AcDbLinetypeTableRecord
  2
LINE_7
 70
     0
  3
________________________________
 72
    65
 73
     0
 40
0.0
  0
LTYPE
  5
46
330
5
100
AcDbSymbolTableRecord
100
AcDbLinetypeTableRecord
  2
LINE_8
 70
     0
  3
________________________________
 72
    65
 73
     0
 40
0.0
  0
LTYPE
  5
47
330
5
100
AcDbSymbolTableRecord
100
AcDbLinetypeTableRecord
  2
LINE_9
 70
     0
  3
________________________________
 72
    65
 73
     0
 40
0.0
  0
LTYPE
  5
48
330
5
100
AcDbSymbolTableRecord
100
AcDbLinetypeTableRecord
  2
LINE_10
 70
     0
  3
________________________________
 72
    65
 73
     0
 40
0.0
  0
LTYPE
  5
49
330
5
100
AcDbSymbolTableRecord
100
AcDbLinetypeTableRecord
  2
LINE_11
 70
     0
  3
________________________________
 72
    65
 73
     0
 40
0.0
  0
LTYPE
  5
4A
330
5
100
AcDbSymbolTableRecord
100
AcDbLinetypeTableRecord
  2
LINE_12
 70
     0
  3
________________________________
 72
    65
 73
     0
 40
0.0
  0
LTYPE
  5
4B
330
5
100
AcDbSymbolTableRecord
100
AcDbLinetypeTableRecord
  2
LINE_13
 70
     0
  3
________________________________
 72
    65
 73
     0
 40
0.0
  0
LTYPE
  5
4C
330
5
100
AcDbSymbolTableRecord
100
AcDbLinetypeTableRecord
  2
LINE_14
 70
     0
  3
________________________________
 72
    65
 73
     0
 40
0.0
  0
LTYPE
  5
4D
330
5
100
AcDbSymbolTableRecord
100
AcDbLinetypeTableRecord
  2
LINE_15
 70
     0
  3
________________________________
 72
    65
 73
     0
 40
0.0
  0
LTYPE
  5
4E
330
5
100
AcDbSymbolTableRecord
100
AcDbLinetypeTableRecord
  2
LINE_16
 70
     0
  3
________________________________
 72
    65
 73
     0
 40
0.0
  0
LTYPE
  5
4F
330
5
100
AcDbSymbolTableRecord
100
AcDbLinetypeTableRecord
  2
LINE_17
 70
     0
  3
________________________________
 72
    65
 73
     0
 40
0.0
  0
LTYPE
  5
50
330
5
100
AcDbSymbolTableRecord
100
AcDbLinetypeTableRecord
  2
LINE_18
 70
     0
  3
________________________________
 72
    65
 73
     0
 40
0.0
  0
LTYPE
  5
51
330
5
100
AcDbSymbolTableRecord
100
AcDbLinetypeTableRecord
  2
LINE_19
 70
     0
  3
________________________________
 72
    65
 73
     0
 40
0.0
  0
ENDTAB
  0
TABLE
  2
LAYER
  5
2
330
0
100
AcDbSymbolTable
 70
     4
  0
LAYER
  5
10
330
2
100
AcDbSymbolTableRecord
100
AcDbLayerTableRecord
  2
0
 70
     0
 62
     7
  6
CONTINUOUS
370
    -3
390
460
  0
LAYER
  5
53
330
2
100
AcDbSymbolTableRecord
100
AcDbLayerTableRecord
  2
DEFAULT
 70
     0
 62
     1
  6
CONTINUOUS
370
    -3
390
460
  0
LAYER
  5
5C
330
2
100
AcDbSymbolTableRecord
100
AcDbLayerTableRecord
  2
A
 70
     0
 62
     1
  6
CONTINUOUS
370
    -3
390
460
  0
LAYER
  5
160
330
2
100
AcDbSymbolTableRecord
100
AcDbLayerTableRecord
  2
B
 70
     0
 62
     1
  6
CONTINUOUS
370
    -3
390
460
  0
ENDTAB
  0
TABLE
  2
STYLE
  5
3
330
0
100
AcDbSymbolTable
 70
     3
  0
STYLE
  5
11
330
3
100
AcDbSymbolTableRecord
100
AcDbTextStyleTableRecord
  2
STANDARD
 70
     0
 40
0.0
 41
1.0
 50
0.0
 71
     0
 42
0.2
  3
txt
  4

  0
STYLE
  5
92
330
3
100
AcDbSymbolTableRecord
100
AcDbTextStyleTableRecord
  2
ARIAL
 70
     0
 40
2.657142857142857
 41
0.9200000000000001
 50
0.0
 71
     0
 42
0.5
  3
ARIAL.TTF
  4

1001
ACAD
1000
Arial
1071
       34
  0
STYLE
  5
35A
330
3
100
AcDbSymbolTableRecord
100
AcDbTextStyleTableRecord
  2
COURIER_NEW
 70
     0
 40
0.6860047606418008
 41
2.299999999999999
 50
0.0
 71
     0
 42
0.5
  3
COUR.TTF
  4

1001
ACAD
1000
Courier New
1071
       49
  0
ENDTAB
  0
TABLE
  2
VIEW
  5
6
330
0
100
AcDbSymbolTable
 70
     1
  0
VIEW
  5
52
330
6
100
AcDbSymbolTableRecord
100
AcDbViewTableRecord
  2
VIEW
 70
     0
 40
1.0
 10
0.0
 20
0.0
 41
1.0
 11
0.0
 21
0.0
 31
1.0
 12
0.0
 22
0.0
 32
0.0
 42
50.0
 43
0.0
 44
0.0
 50
0.0
 71
     0
281
     0
 72
     0
  0
ENDTAB
  0
TABLE
  2
UCS
  5
7
330
0
100
AcDbSymbolTable
 70
     0
  0
ENDTAB
  0
TABLE
  2
APPID
  5
9
330
0
100
AcDbSymbolTable
 70
     1
  0
APPID
  5
12
330
9
100
AcDbSymbolTableRecord
100
AcDbRegAppTableRecord
  2
ACAD
 70
     0
  0
ENDTAB
  0
TABLE
  2
DIMSTYLE
  5
A
330
0
100
AcDbSymbolTable
 70
     1
100
AcDbDimStyleTable
 71
     0
  0
DIMSTYLE
105
27
330
A
100
AcDbSymbolTableRecord
100
AcDbDimStyleTableRecord
  2
STANDARD
 70
     0
340
11
  0
ENDTAB
  0
TABLE
  2
BLOCK_RECORD
  5
1
330
0
100
AcDbSymbolTable
 70
    16
  0
BLOCK_RECORD
  5
1F
330
1
100
AcDbSymbolTableRecord
100
AcDbBlockTableRecord
  2
*MODEL_SPACE
340
461
  0
BLOCK_RECORD
  5
1B
330
1
100
AcDbSymbolTableRecord
100
AcDbBlockTableRecord
  2
*PAPER_SPACE
340
462
  0
BLOCK_RECORD
  5
54
330
1
100
AcDbSymbolTableRecord
100
AcDbBlockTableRecord
  2
14
340
0
102
{BLKREFS
331
CB
102
}
  0
BLOCK_RECORD
  5
171
330
1
100
AcDbSymbolTableRecord
100
AcDbBlockTableRecord
  2
004C0_000_0_3_1
340
0
102
{BLKREFS
331
17D
331
181
102
}
  0
BLOCK_RECORD
  5
186
330
1
100
AcDbSymbolTableRecord
100
AcDbBlockTableRecord
  2
_I443_KNX_0_3_1
340
0
102
{BLKREFS
331
1AE
102
}
  0
BLOCK_RECORD
  5
1B5
330
1
100
AcDbSymbolTableRecord
100
AcDbBlockTableRecord
  2
_I449_KNX_0_3_1
340
0
102
{BLKREFS
331
1EB
102
}
  0
BLOCK_RECORD
  5
1F7
330
1
100
AcDbSymbolTableRecord
100
AcDbBlockTableRecord
  2
018C0_001_0_3_1
340
0
102
{BLKREFS
331
202
331
289
102
}
  0
BLOCK_RECORD
  5
206
330
1
100
AcDbSymbolTableRecord
100
AcDbBlockTableRecord
  2
006C0_001_0_3_1
340
0
102
{BLKREFS
331
212
331
2D9
102
}
  0
BLOCK_RECORD
  5
216
330
1
100
AcDbSymbolTableRecord
100
AcDbBlockTableRecord
  2
_I450_KNX_0_3_1
340
0
102
{BLKREFS
331
26C
102
}
  0
BLOCK_RECORD
  5
28D
330
1
100
AcDbSymbolTableRecord
100
AcDbBlockTableRecord
  2
X12C0_X01_0_3_1
340
0
102
{BLKREFS
331
2D5
331
2DD
331
316
331
32D
331
331
331
377
331
37B
331
3EB
331
3EF
331
3F3
331
3F7
331
3FB
331
3FF
331
403
102
}
  0
BLOCK_RECORD
  5
2E1
330
1
100
AcDbSymbolTableRecord
100
AcDbBlockTableRecord
  2
S01C0N_S01_0_3_1
340
0
102
{BLKREFS
331
2EF
102
}
  0
BLOCK_RECORD
  5
2F3
330
1
100
AcDbSymbolTableRecord
100
AcDbBlockTableRecord
  2
S07C0N_S01_0_3_1
340
0
102
{BLKREFS
331
30F
102
}
  0
BLOCK_RECORD
  5
31A
330
1
100
AcDbSymbolTableRecord
100
AcDbBlockTableRecord
  2
S02C0N_S01_0_3_1
340
0
102
{BLKREFS
331
329
102
}
  0
BLOCK_RECORD
  5
335
330
1
100
AcDbSymbolTableRecord
100
AcDbBlockTableRecord
  2
012C0_001_0_3_1
340
0
102
{BLKREFS
331
343
331
347
331
41D
331
421
102
}
  0
BLOCK_RECORD
  5
34B
330
1
100
AcDbSymbolTableRecord
100
AcDbBlockTableRecord
  2
B41C0N_B03_0_3_1
340
0
102
{BLKREFS
331
357
102
}
  0
BLOCK_RECORD
  5
35C
330
1
100
AcDbSymbolTableRecord
100
AcDbBlockTableRecord
  2
B53C0N_B03_0_3_1
340
0
102
{BLKREFS
331
373
102
}
  0
BLOCK_RECORD
  5
37F
330
1
100
AcDbSymbolTableRecord
100
AcDbBlockTableRecord
  2
CLAVIER_KNX_0_3_1
340
0
102
{BLKREFS
331
3E2
102
}
  0
BLOCK_RECORD
  5
407
330
1
100
AcDbSymbolTableRecord
100
AcDbBlockTableRecord
  2
002C0_000_0_3_1
340
0
102
{BLKREFS
331
413
331
418
102
}
  0
ENDTAB
  0
ENDSEC
  0
SECTION
  2
BLOCKS
  0
BLOCK
  5
20
330
1F
100
AcDbEntity
  8
0
100
AcDbBlockBegin
  2
*MODEL_SPACE
 70
     0
 10
0.0
 20
0.0
 30
0.0
  3
*MODEL_SPACE
  1

  0
ENDBLK
  5
21
330
1F
100
AcDbEntity
  8
0
100
AcDbBlockEnd
  0
BLOCK
  5
1C
330
1B
100
AcDbEntity
 67
     1
  8
0
100
AcDbBlockBegin
  2
*PAPER_SPACE
 70
     0
 10
0.0
 20
0.0
 30
0.0
  3
*PAPER_SPACE
  1

  0
ENDBLK
  5
1D
330
1B
100
AcDbEntity
 67
     1
  8
0
100
AcDbBlockEnd
  0
BLOCK
  5
C9
330
54
100
AcDbEntity
  8
0
100
AcDbBlockBegin
  2
14
 70
     2
 10
0.0
 20
0.0
 30
0.0
  3
14
  1

  0
LWPOLYLINE
  5
55
330
54
100
AcDbEntity
  8
A
  6
EPAIS
 62
     9
100
AcDbPolyline
 90
        5
 70
     0
 43
0.0
 10
0.0
 20
0.0
 10
0.0
 20
20.0
 10
297.0
 20
20.0
 10
297.0
 20
0.0
 10
0.0
 20
0.0
  0
LWPOLYLINE
  5
5D
330
54
100
AcDbEntity
  8
A
  6
EPAIS
 62
     9
100
AcDbPolyline
 90
        5
 70
     0
 43
0.0
 10
140.0
 20
0.0
 10
140.0
 20
20.0
 10
203.0
 20
20.0
 10
203.0
 20
0.0
 10
140.0
 20
0.0
  0
LWPOLYLINE
  5
64
330
54
100
AcDbEntity
  8
A
  6
EPAIS
 62
     9
100
AcDbPolyline
 90
        5
 70
     0
 43
0.0
 10
202.9814453125
 20
20.0
 10
202.9814453125
 20
0.0
 10
239.9814453124999
 20
0.0
 10
239.9814453124999
 20
20.0
 10
202.9814453125
 20
20.0
  0
LWPOLYLINE
  5
6B
330
54
100
AcDbEntity
  8
A
  6
EPAIS
 62
     9
100
AcDbPolyline
 90
        5
 70
     0
 43
0.0
 10
140.0
 20
20.0
 10
140.0
 20
13.5
 10
240.0
 20
13.5
 10
240.0
 20
20.0
 10
140.0
 20
20.0
  0
LINE
  5
72
330
54
100
AcDbEntity
  8
A
  6
MOYEN
 62
     4
100
AcDbLine
 10
140.0
 20
10.0
 30
0.0
 11
240.0
 21
10.0
 31
0.0
  0
LINE
  5
73
330
54
100
AcDbEntity
  8
A
  6
MOYEN
 62
     4
100
AcDbLine
 10
140.0
 20
7.5
 30
0.0
 11
240.0
 21
7.5
 31
0.0
  0
LINE
  5
74
330
54
100
AcDbEntity
  8
A
  6
MOYEN
 62
     4
100
AcDbLine
 10
240.0
 20
5.0
 30
0.0
 11
140.0
 21
5.0
 31
0.0
  0
LINE
  5
75
330
54
100
AcDbEntity
  8
A
  6
MOYEN
 62
     4
100
AcDbLine
 10
140.0
 20
2.5
 30
0.0
 11
240.0
 21
2.5
 31
0.0
  0
LINE
  5
76
330
54
100
AcDbEntity
  8
A
  6
EPAIS
 62
     9
100
AcDbLine
 10
240.0
 20
5.0
 30
0.0
 11
297.0
 21
5.0
 31
0.0
  0
LINE
  5
77
330
54
100
AcDbEntity
  8
A
  6
MOYEN
 62
     4
100
AcDbLine
 10
171.5
 20
20.0
 30
0.0
 11
171.5
 21
13.5
 31
0.0
  0
LINE
  5
78
330
54
100
AcDbEntity
  8
A
  6
MOYEN
 62
     4
100
AcDbLine
 10
221.4999999999999
 20
13.5
 30
0.0
 11
221.4999999999999
 21
0.0
 31
0.0
  0
IMAGE
  5
7C
330
54
100
AcDbEntity
  8
A
  6
FIN
 62
     0
 92
      140
310
8C000000010000008400000006000000050000000000000078756F400000805613281A4000000000000000000000000078756F4000000000CA6E32400000000000000000000004DFFDE1714000000000CA6E32400000000000000000000004DFFDE171400000805613281A4000000000000000000000000078756F40000080
310
5613281A400000000000000000
100
AcDbRasterImage
 90
        0
 10
251.6708984375
 20
6.53913626819849
 30
0.0
 11
0.0938789695501328
 21
0.0
 31
0.0
 12
0.0
 22
0.0868148431181908
 32
0.0
 13
367.0
 23
137.0
340
7A
 70
     3
280
     0
281
    50
282
    50
283
     0
360
7D
 71
     1
 91
        2
 14
-0.5
 24
-0.5
 14
366.5
 24
136.4999999999999
  0
ATTDEF
  5
7E
330
54
100
AcDbEntity
  8
A
  6
FIN
 62
     7
100
AcDbText
 10
282.8171997070313
 20
1.607490219388689
 30
0.0
 40
1.992857142857142
  1

 41
0.9200000000000001
 72
     2
 11
282.8171997070313
 21
2.60391879081726
 31
0.0
100
AcDbAttributeDefinition
  3

  2
$FOLNUM
 70
     0
 74
     2
  0
ATTDEF
  5
7F
330
54
100
AcDbEntity
  8
A
  6
FIN
 62
     7
100
AcDbText
 10
285.0936889648437
 20
1.664779342923845
 30
0.0
 40
1.992857142857142
  1

 41
0.9200000000000001
 11
285.0936889648437
 21
2.661207914352416
 31
0.0
100
AcDbAttributeDefinition
  3

  2
$NBFOLGR
 70
     0
 74
     2
  0
ATTDEF
  5
80
330
54
100
AcDbEntity
  8
A
  6
FIN
 62
     7
100
AcDbText
 10
221.9862518310546
 20
16.8684196472168
 30
0.0
 40
1.992857142857142
  1

 41
0.9200000000000001
 72
     4
 11
221.9862518310546
 21
16.8684196472168
 31
0.0
100
AcDbAttributeDefinition
  3

  2
$DOSSIER(N-1)
 70
     0
 74
     2
  0
ATTDEF
  5
81
330
54
100
AcDbEntity
  8
A
  6
FIN
 62
     7
100
AcDbText
 10
156.6351318359375
 20
15.96512309483119
 30
0.0
 40
1.992857142857142
  1

 41
0.9200000000000001
 11
156.6351318359375
 21
16.96155166625977
 31
0.0
100
AcDbAttributeDefinition
  3

  2
$FOLREALI
 70
     0
 74
     2
  0
ATTDEF
  5
82
330
54
100
AcDbEntity
  8
A
  6
FIN
 62
     7
100
AcDbText
 10
179.9422607421875
 20
15.98519030979701
 30
0.0
 40
1.992857142857142
  1

 41
0.9200000000000001
 11
179.9422607421875
 21
16.98161888122559
 31
0.0
100
AcDbAttributeDefinition
  3

  2
$REV_DATE:X
 70
     0
 74
     2
  0
ATTDEF
  5
83
330
54
100
AcDbEntity
  8
A
  6
FIN
 62
     7
100
AcDbText
 10
3.636573791503906
 20
12.95742307390485
 30
0.0
 40
3.321428571428572
  1

 41
0.9200000000000001
 11
3.636573791503906
 21
14.61813735961914
 31
0.0
100
AcDbAttributeDefinition
  3

  2
$DOSSIER(N-3)
 70
     0
 74
     2
  0
ATTDEF
  5
84
330
54
100
AcDbEntity
  8
A
  6
FIN
 62
     7
100
AcDbText
 10
3.618404388427733
 20
4.105261666434151
 30
0.0
 40
3.321428571428572
  1

 41
0.9200000000000001
 11
3.618404388427733
 21
5.765975952148437
 31
0.0
100
AcDbAttributeDefinition
  3

  2
$FOLTITRE
 70
     0
 74
     2
  0
ATTDEF
  5
85
330
54
100
AcDbEntity
  8
A
  6
FIN
 62
     7
100
AcDbText
 10
141.2790985107421
 20
8.208684866768972
 30
0.0
 40
1.328571428571428
  1

 41
0.9200000000000001
 11
141.2790985107421
 21
8.872970581054687
 31
0.0
100
AcDbAttributeDefinition
  3

  2
$REV_LIB:X
 70
     0
 74
     2
  0
ATTDEF
  5
86
330
54
100
AcDbEntity
  8
A
  6
FIN
 62
     7
100
AcDbText
 10
206.1279602050781
 20
8.217974608285086
 30
0.0
 40
1.328571428571428
  1

 41
0.9200000000000001
 11
206.1279602050781
 21
8.8822603225708
 31
0.0
100
AcDbAttributeDefinition
  3

  2
$REV_DATE:X
 70
     0
 74
     2
  0
ATTDEF
  5
87
330
54
100
AcDbEntity
  8
A
  6
FIN
 62
     7
100
AcDbText
 10
224.9319915771484
 20
8.217974608285086
 30
0.0
 40
1.328571428571428
  1

 41
0.9200000000000001
 11
224.9319915771484
 21
8.8822603225708
 31
0.0
100
AcDbAttributeDefinition
  3

  2
$REV_NOM:X
 70
     0
 74
     2
  0
ATTDEF
  5
88
330
54
100
AcDbEntity
  8
A
  6
FIN
 62
     7
100
AcDbText
 10
141.2750091552734
 20
5.786786978585379
 30
0.0
 40
1.328571428571428
  1

 41
0.9200000000000001
 11
141.2750091552734
 21
6.451072692871093
 31
0.0
100
AcDbAttributeDefinition
  3

  2
$REV_LIB:X+1
 70
     0
 74
     2
  0
ATTDEF
  5
89
330
54
100
AcDbEntity
  8
A
  6
FIN
 62
     7
100
AcDbText
 10
206.1238708496094
 20
5.796075766427176
 30
0.0
 40
1.328571428571428
  1

 41
0.9200000000000001
 11
206.1238708496094
 21
6.460361480712891
 31
0.0
100
AcDbAttributeDefinition
  3

  2
$REV_DATE:X+1
 70
     0
 74
     2
  0
ATTDEF
  5
8A
330
54
100
AcDbEntity
  8
A
  6
FIN
 62
     7
100
AcDbText
 10
224.9279022216796
 20
5.796075766427176
 30
0.0
 40
1.328571428571428
  1

 41
0.9200000000000001
 11
224.9279022216796
 21
6.460361480712891
 31
0.0
100
AcDbAttributeDefinition
  3

  2
$REV_NOM:X+1
 70
     0
 74
     2
  0
ATTDEF
  5
8B
330
54
100
AcDbEntity
  8
A
  6
FIN
 62
     7
100
AcDbText
 10
141.2959594726563
 20
3.234682743889944
 30
0.0
 40
1.328571428571428
  1

 41
0.9200000000000001
 11
141.2959594726563
 21
3.898968458175658
 31
0.0
100
AcDbAttributeDefinition
  3

  2
$REV_LIB:X+2
 70
     0
 74
     2
  0
ATTDEF
  5
8C
330
54
100
AcDbEntity
  8
A
  6
FIN
 62
     7
100
AcDbText
 10
206.1448211669921
 20
3.243971531731741
 30
0.0
 40
1.328571428571428
  1

 41
0.9200000000000001
 11
206.1448211669921
 21
3.908257246017456
 31
0.0
100
AcDbAttributeDefinition
  3

  2
$REV_DATE:X+2
 70
     0
 74
     2
  0
ATTDEF
  5
8D
330
54
100
AcDbEntity
  8
A
  6
FIN
 62
     7
100
AcDbText
 10
224.9488525390625
 20
3.243971531731741
 30
0.0
 40
1.328571428571428
  1

 41
0.9200000000000001
 11
224.9488525390625
 21
3.908257246017456
 31
0.0
100
AcDbAttributeDefinition
  3

  2
$REV_NOM:X+2
 70
     0
 74
     2
  0
ATTDEF
  5
8E
330
54
100
AcDbEntity
  8
A
  6
FIN
 62
     7
100
AcDbText
 10
141.2657165527344
 20
0.6825732639857697
 30
0.0
 40
1.328571428571428
  1

 41
0.9200000000000001
 11
141.2657165527344
 21
1.346858978271484
 31
0.0
100
AcDbAttributeDefinition
  3

  2
$REV_LIB:X+3
 70
     0
 74
     2
  0
ATTDEF
  5
8F
330
54
100
AcDbEntity
  8
A
  6
FIN
 62
     7
100
AcDbText
 10
206.1145782470703
 20
0.6918620518275666
 30
0.0
 40
1.328571428571428
  1

 41
0.9200000000000001
 11
206.1145782470703
 21
1.356147766113281
 31
0.0
100
AcDbAttributeDefinition
  3

  2
$REV_DATE:X+3
 70
     0
 74
     2
  0
ATTDEF
  5
90
330
54
100
AcDbEntity
  8
A
  6
FIN
 62
     7
100
AcDbText
 10
224.9186096191405
 20
0.6918620518275666
 30
0.0
 40
1.328571428571428
  1

 41
0.9200000000000001
 11
224.9186096191405
 21
1.356147766113281
 31
0.0
100
AcDbAttributeDefinition
  3

  2
$REV_NOM:X+3
 70
     0
 74
     2
  0
LINE
  5
91
330
54
100
AcDbEntity
  8
A
  6
FIN
 62
     7
100
AcDbLine
 10
0.0
 20
205.0
 30
0.0
 11
297.0
 21
205.0
 31
0.0
  0
TEXT
  5
93
330
54
100
AcDbEntity
  8
A
  6
FIN
 62
     7
100
AcDbText
 10
7.425001144409179
 20
205.5
 30
0.0
 40
2.657142857142857
  1
1
 41
0.9200000000000001
  7
ARIAL
100
AcDbText
  0
LINE
  5
94
330
54
100
AcDbEntity
  8
A
  6
FIN
 62
     7
100
AcDbLine
 10
14.85000133514403
 20
205.0
 30
0.0
 11
14.85000133514403
 21
210.0
 31
0.0
  0
TEXT
  5
95
330
54
100
AcDbEntity
  8
A
  6
FIN
 62
     7
100
AcDbText
 10
22.27500152587891
 20
205.5
 30
0.0
 40
2.657142857142857
  1
2
 41
0.9200000000000001
  7
ARIAL
100
AcDbText
  0
LINE
  5
96
330
54
100
AcDbEntity
  8
A
  6
FIN
 62
     7
100
AcDbLine
 10
29.70000267028808
 20
205.0
 30
0.0
 11
29.70000267028808
 21
210.0
 31
0.0
  0
TEXT
  5
97
330
54
100
AcDbEntity
  8
A
  6
FIN
 62
     7
100
AcDbText
 10
37.12500381469727
 20
205.5
 30
0.0
 40
2.657142857142857
  1
3
 41
0.9200000000000001
  7
ARIAL
100
AcDbText
  0
LINE
  5
98
330
54
100
AcDbEntity
  8
A
  6
FIN
 62
     7
100
AcDbLine
 10
44.55000305175781
 20
205.0
 30
0.0
 11
44.55000305175781
 21
210.0
 31
0.0
  0
TEXT
  5
99
330
54
100
AcDbEntity
  8
A
  6
FIN
 62
     7
100
AcDbText
 10
51.97500610351563
 20
205.5
 30
0.0
 40
2.657142857142857
  1
4
 41
0.9200000000000001
  7
ARIAL
100
AcDbText
  0
LINE
  5
9A
330
54
100
AcDbEntity
  8
A
  6
FIN
 62
     7
100
AcDbLine
 10
59.40000534057617
 20
205.0
 30
0.0
 11
59.40000534057617
 21
210.0
 31
0.0
  0
TEXT
  5
9B
330
54
100
AcDbEntity
  8
A
  6
FIN
 62
     7
100
AcDbText
 10
66.82500457763672
 20
205.5
 30
0.0
 40
2.657142857142857
  1
5
 41
0.9200000000000001
  7
ARIAL
100
AcDbText
  0
LINE
  5
9C
330
54
100
AcDbEntity
  8
A
  6
FIN
 62
     7
100
AcDbLine
 10
74.25000762939453
 20
205.0
 30
0.0
 11
74.25000762939453
 21
210.0
 31
0.0
  0
TEXT
  5
9D
330
54
100
AcDbEntity
  8
A
  6
FIN
 62
     7
100
AcDbText
 10
81.67500305175781
 20
205.5
 30
0.0
 40
2.657142857142857
  1
6
 41
0.9200000000000001
  7
ARIAL
100
AcDbText
  0
LINE
  5
9E
330
54
100
AcDbEntity
  8
A
  6
FIN
 62
     7
100
AcDbLine
 10
89.10000610351563
 20
205.0
 30
0.0
 11
89.10000610351563
 21
210.0
 31
0.0
  0
TEXT
  5
9F
330
54
100
AcDbEntity
  8
A
  6
FIN
 62
     7
100
AcDbText
 10
96.52500152587892
 20
205.5
 30
0.0
 40
2.657142857142857
  1
7
 41
0.9200000000000001
  7
ARIAL
100
AcDbText
  0
LINE
  5
A0
330
54
100
AcDbEntity
  8
A
  6
FIN
 62
     7
100
AcDbLine
 10
103.9500045776367
 20
205.0
 30
0.0
 11
103.9500045776367
 21
210.0
 31
0.0
  0
TEXT
  5
A1
330
54
100
AcDbEntity
  8
A
  6
FIN
 62
     7
100
AcDbText
 10
111.375
 20
205.5
 30
0.0
 40
2.657142857142857
  1
8
 41
0.9200000000000001
  7
ARIAL
100
AcDbText
  0
LINE
  5
A2
330
54
100
AcDbEntity
  8
A
  6
FIN
 62
     7
100
AcDbLine
 10
118.8000030517577
 20
205.0
 30
0.0
 11
118.8000030517577
 21
210.0
 31
0.0
  0
TEXT
  5
A3
330
54
100
AcDbEntity
  8
A
  6
FIN
 62
     7
100
AcDbText
 10
126.2250061035155
 20
205.5
 30
0.0
 40
2.657142857142857
  1
9
 41
0.9200000000000001
  7
ARIAL
100
AcDbText
  0
LINE
  5
A4
330
54
100
AcDbEntity
  8
A
  6
FIN
 62
     7
100
AcDbLine
 10
133.6500091552734
 20
205.0
 30
0.0
 11
133.6500091552734
 21
210.0
 31
0.0
  0
TEXT
  5
A5
330
54
100
AcDbEntity
  8
A
  6
FIN
 62
     7
100
AcDbText
 10
141.0750122070313
 20
205.5
 30
0.0
 40
2.657142857142857
  1
10
 41
0.9200000000000001
  7
ARIAL
100
AcDbText
  0
LINE
  5
A6
330
54
100
AcDbEntity
  8
A
  6
FIN
 62
     7
100
AcDbLine
 10
148.500015258789
 20
205.0
 30
0.0
 11
148.500015258789
 21
210.0
 31
0.0
  0
TEXT
  5
A7
330
54
100
AcDbEntity
  8
A
  6
FIN
 62
     7
100
AcDbText
 10
155.9250183105469
 20
205.5
 30
0.0
 40
2.657142857142857
  1
11
 41
0.9200000000000001
  7
ARIAL
100
AcDbText
  0
LINE
  5
A8
330
54
100
AcDbEntity
  8
A
  6
FIN
 62
     7
100
AcDbLine
 10
163.3500213623046
 20
205.0
 30
0.0
 11
163.3500213623046
 21
210.0
 31
0.0
  0
TEXT
  5
A9
330
54
100
AcDbEntity
  8
A
  6
FIN
 62
     7
100
AcDbText
 10
170.7750244140624
 20
205.5
 30
0.0
 40
2.657142857142857
  1
12
 41
0.9200000000000001
  7
ARIAL
100
AcDbText
  0
LINE
  5
AA
330
54
100
AcDbEntity
  8
A
  6
FIN
 62
     7
100
AcDbLine
 10
178.2000274658203
 20
205.0
 30
0.0
 11
178.2000274658203
 21
210.0
 31
0.0
  0
TEXT
  5
AB
330
54
100
AcDbEntity
  8
A
  6
FIN
 62
     7
100
AcDbText
 10
185.6250305175781
 20
205.5
 30
0.0
 40
2.657142857142857
  1
13
 41
0.9200000000000001
  7
ARIAL
100
AcDbText
  0
LINE
  5
AC
330
54
100
AcDbEntity
  8
A
  6
FIN
 62
     7
100
AcDbLine
 10
193.0500335693359
 20
205.0
 30
0.0
 11
193.0500335693359
 21
210.0
 31
0.0
  0
TEXT
  5
AD
330
54
100
AcDbEntity
  8
A
  6
FIN
 62
     7
100
AcDbText
 10
200.4750366210938
 20
205.5
 30
0.0
 40
2.657142857142857
  1
14
 41
0.9200000000000001
  7
ARIAL
100
AcDbText
  0
LINE
  5
AE
330
54
100
AcDbEntity
  8
A
  6
FIN
 62
     7
100
AcDbLine
 10
207.9000396728515
 20
205.0
 30
0.0
 11
207.9000396728515
 21
210.0
 31
0.0
  0
TEXT
  5
AF
330
54
100
AcDbEntity
  8
A
  6
FIN
 62
     7
100
AcDbText
 10
215.3250427246093
 20
205.5
 30
0.0
 40
2.657142857142857
  1
15
 41
0.9200000000000001
  7
ARIAL
100
AcDbText
  0
LINE
  5
B0
330
54
100
AcDbEntity
  8
A
  6
FIN
 62
     7
100
AcDbLine
 10
222.7500457763671
 20
205.0
 30
0.0
 11
222.7500457763671
 21
210.0
 31
0.0
  0
TEXT
  5
B1
330
54
100
AcDbEntity
  8
A
  6
FIN
 62
     7
100
AcDbText
 10
230.1750488281249
 20
205.5
 30
0.0
 40
2.657142857142857
  1
16
 41
0.9200000000000001
  7
ARIAL
100
AcDbText
  0
LINE
  5
B2
330
54
100
AcDbEntity
  8
A
  6
FIN
 62
     7
100
AcDbLine
 10
237.6000518798828
 20
205.0
 30
0.0
 11
237.6000518798828
 21
210.0
 31
0.0
  0
TEXT
  5
B3
330
54
100
AcDbEntity
  8
A
  6
FIN
 62
     7
100
AcDbText
 10
245.0250549316406
 20
205.5
 30
0.0
 40
2.657142857142857
  1
17
 41
0.9200000000000001
  7
ARIAL
100
AcDbText
  0
LINE
  5
B4
330
54
100
AcDbEntity
  8
A
  6
FIN
 62
     7
100
AcDbLine
 10
252.4500579833984
 20
205.0
 30
0.0
 11
252.4500579833984
 21
210.0
 31
0.0
  0
TEXT
  5
B5
330
54
100
AcDbEntity
  8
A
  6
FIN
 62
     7
100
AcDbText
 10
259.8750610351562
 20
205.5
 30
0.0
 40
2.657142857142857
  1
18
 41
0.9200000000000001
  7
ARIAL
100
AcDbText
  0
LINE
  5
B6
330
54
100
AcDbEntity
  8
A
  6
FIN
 62
     7
100
AcDbLine
 10
267.300048828125
 20
205.0
 30
0.0
 11
267.300048828125
 21
210.0
 31
0.0
  0
TEXT
  5
B7
330
54
100
AcDbEntity
  8
A
  6
FIN
 62
     7
100
AcDbText
 10
274.7250671386719
 20
205.5
 30
0.0
 40
2.657142857142857
  1
19
 41
0.9200000000000001
  7
ARIAL
100
AcDbText
  0
LINE
  5
B8
330
54
100
AcDbEntity
  8
A
  6
FIN
 62
     7
100
AcDbLine
 10
282.1500549316406
 20
205.0
 30
0.0
 11
282.1500549316406
 21
210.0
 31
0.0
  0
TEXT
  5
B9
330
54
100
AcDbEntity
  8
A
  6
FIN
 62
     7
100
AcDbText
 10
289.5750732421875
 20
205.5
 30
0.0
 40
2.657142857142857
  1
20
 41
0.9200000000000001
  7
ARIAL
100
AcDbText
  0
LINE
  5
BA
330
54
100
AcDbEntity
  8
A
  6
FIN
 62
     7
100
AcDbLine
 10
297.0000610351563
 20
205.0
 30
0.0
 11
297.0000610351563
 21
210.0
 31
0.0
  0
LWPOLYLINE
  5
BB
330
54
100
AcDbEntity
  8
A
  6
FIN
 62
     7
100
AcDbPolyline
 90
        5
 70
     0
 43
0.0
 10
0.0
 20
20.0
 10
0.0
 20
210.0
 10
297.0
 20
210.0
 10
297.0
 20
20.0
 10
0.0
 20
20.0
  0
LWPOLYLINE
  5
C2
330
54
100
AcDbEntity
  8
A
  6
FIN
 62
     7
100
AcDbPolyline
 90
        5
 70
     0
 43
0.0
 10
0.0
 20
0.0
 10
0.0
 20
210.0
 10
297.0
 20
210.0
 10
297.0
 20
0.0
 10
0.0
 20
0.0
  0
ENDBLK
  5
CA
330
54
100
AcDbEntity
  8
0
100
AcDbBlockEnd
  0
BLOCK
  5
17B
330
171
100
AcDbEntity
  8
0
100
AcDbBlockBegin
  2
004C0_000_0_3_1
 70
     2
 10
0.0
 20
0.0
 30
0.0
  3
004C0_000_0_3_1
  1

  0
ATTDEF
  5
172
330
171
100
AcDbEntity
  8
A
  6
FIN
 62
     3
100
AcDbText
 10
-4.204545474233043
 20
0.3503787808176693
 30
0.0
 40
1.280133883697645
  1

 41
0.9200000000000001
  7
ARIAL
 72
     4
 11
-4.204545474233043
 21
0.3503787808176693
 31
0.0
100
AcDbAttributeDefinition
  3

  2
$REPERE
 70
     0
 74
     2
  0
ATTDEF
  5
173
330
171
100
AcDbEntity
  8
A
  6
FIN
 62
     1
100
AcDbText
 10
1.751893877983093
 20
1.287642083854383
 30
0.0
 40
1.629261306524276
  1

 41
0.9200000000000001
  7
ARIAL
 11
1.751893877983093
 21
2.102272737116521
 31
0.0
100
AcDbAttributeDefinition
  3

  2
$NUM_EQUI
 70
     0
 74
     2
  0
ATTDEF
  5
174
330
171
100
AcDbEntity
  8
A
  6
FIN
 62
     1
100
AcDbText
 10
-3.854161185206976
 20
0.3504001610199339
 30
0.0
 40
1.280133883697645
  1

 41
0.9200000000000001
  7
ARIAL
 72
     4
 11
-3.854161185206976
 21
0.3504001610199339
 31
0.0
100
AcDbAttributeDefinition
  3

  2
$POS_REFCRO_1
 70
     0
 74
     2
  0
LINE
  5
175
330
171
100
AcDbEntity
  8
A
  6
CYAN
 62
     4
100
AcDbLine
 10
-7.007575511932372
 20
-1.401515123270677
 30
0.0
 11
-7.007575511932372
 21
1.401515123270677
 31
0.0
  0
LINE
  5
176
330
171
100
AcDbEntity
  8
A
  6
CYAN
 62
     4
100
AcDbLine
 10
-7.007575511932372
 20
1.401515123270677
 30
0.0
 11
-1.751893877983093
 21
1.401515123270677
 31
0.0
  0
LINE
  5
177
330
171
100
AcDbEntity
  8
A
  6
CYAN
 62
     4
100
AcDbLine
 10
-1.751893877983093
 20
1.401515123270677
 30
0.0
 11
0.0
 21
0.0
 31
0.0
  0
LINE
  5
178
330
171
100
AcDbEntity
  8
A
  6
CYAN
 62
     4
100
AcDbLine
 10
0.0
 20
0.0
 30
0.0
 11
-1.751893877983093
 21
-1.401515123270677
 31
0.0
  0
LINE
  5
179
330
171
100
AcDbEntity
  8
A
  6
CYAN
 62
     4
100
AcDbLine
 10
-1.751893877983093
 20
-1.401515123270677
 30
0.0
 11
-7.007575511932372
 21
-1.401515123270677
 31
0.0
  0
LINE
  5
17A
330
171
100
AcDbEntity
  8
A
  6
CYAN
 62
     4
100
AcDbLine
 10
0.0
 20
0.0
 30
0.0
 11
0.7007575616353386
 21
0.0
 31
0.0
  0
ENDBLK
  5
17C
330
171
100
AcDbEntity
  8
0
100
AcDbBlockEnd
  0
BLOCK
  5
1AC
330
186
100
AcDbEntity
  8
0
100
AcDbBlockBegin
  2
_I443_KNX_0_3_1
 70
     2
 10
0.0
 20
0.0
 30
0.0
  3
_I443_KNX_0_3_1
  1

  0
ATTDEF
  5
187
330
186
100
AcDbEntity
  8
A
  6
FIN
 62
     3
100
AcDbText
 10
-8.759469389915466
 20
16.47155651135103
 30
0.0
 40
2.094764536959783
  1

 41
0.9200000000000001
  7
ARIAL
 72
     2
 11
-8.759469389915466
 21
17.51893877983093
 31
0.0
100
AcDbAttributeDefinition
  3

  2
$ETIQUETTE
 70
     0
 74
     2
  0
ATTDEF
  5
188
330
186
100
AcDbEntity
  8
A
  6
FIN
 62
     3
100
AcDbText
 10
-8.759469389915466
 20
19.74133996274052
 30
0.0
 40
1.86201292174203
  1

 41
0.9200000000000001
  7
ARIAL
 72
     2
 11
-8.759469389915466
 21
20.67234642361154
 31
0.0
100
AcDbAttributeDefinition
  3

  2
$LOCALISATION
 70
     0
 74
     2
  0
ATTDEF
  5
189
330
186
100
AcDbEntity
  8
A
  6
FIN
 62
     3
100
AcDbText
 10
-8.759469389915466
 20
22.54437417728034
 30
0.0
 40
1.86201292174203
  1

 41
0.9200000000000001
  7
ARIAL
 72
     2
 11
-8.759469389915466
 21
23.47538063815135
 31
0.0
100
AcDbAttributeDefinition
  3

  2
$FONCTION
 70
     0
 74
     2
  0
ATTDEF
  5
18A
330
186
100
AcDbEntity
  8
A
  6
FIN
 62
     1
100
AcDbText
 10
-8.759469389915466
 20
8.295218848838905
 30
0.0
 40
1.629261306524276
  1

 41
0.9200000000000001
  7
ARIAL
 72
     2
 11
-8.759469389915466
 21
9.109849502101043
 31
0.0
100
AcDbAttributeDefinition
  3

  2
$POS_REFCRO_1
 70
     0
 74
     2
  0
ATTDEF
  5
18B
330
186
100
AcDbEntity
  8
A
  6
FIN
 62
     1
100
AcDbText
 10
-8.759469389915466
 20
11.09825306337872
 30
0.0
 40
1.629261306524276
  1

 41
0.9200000000000001
  7
ARIAL
 72
     2
 11
-8.759469389915466
 21
11.91288371664086
 31
0.0
100
AcDbAttributeDefinition
  3

  2
CODE
 70
     0
 74
     2
  0
ATTDEF
  5
18C
330
186
100
AcDbEntity
  8
A
  6
FIN
 62
     1
100
AcDbText
 10
-8.759471060651662
 20
5.842571429429444
 30
0.0
 40
1.629261306524276
  1

 41
0.9200000000000001
  7
ARIAL
 72
     2
 11
-8.759471060651662
 21
6.657202082691582
 31
0.0
100
AcDbAttributeDefinition
  3

  2
SYMBOLE
 70
     0
 74
     2
  0
ATTDEF
  5
18D
330
186
100
AcDbEntity
  8
A
  6
FIN
 62
     1
100
AcDbText
 10
-8.759469389915466
 20
13.55090048278818
 30
0.0
 40
1.629261306524276
  1

 41
0.9200000000000001
  7
ARIAL
 72
     2
 11
-8.759469389915466
 21
14.36553113605032
 31
0.0
100
AcDbAttributeDefinition
  3

  2
FABRICANT
 70
     0
 74
     2
  0
ATTDEF
  5
18E
330
186
100
AcDbEntity
  8
A
  6
FIN
 62
     1
100
AcDbText
 10
-8.75946270697068
 20
3.389917327075199
 30
0.0
 40
1.629261306524276
  1

 41
0.9200000000000001
  7
ARIAL
 72
     2
 11
-8.75946270697068
 21
4.204547980337338
 31
0.0
100
AcDbAttributeDefinition
  3

  2
SERIE
 70
     0
 74
     2
  0
ATTDEF
  5
18F
330
186
100
AcDbEntity
  8
A
  6
FIN
 62
     1
100
AcDbText
 10
0.0
 20
3.153409314516806
 30
0.0
 40
1.512885498915399
  1

 41
0.9200000000000001
  7
ARIAL
 72
     4
 11
0.0
 21
3.153409314516806
 31
0.0
100
AcDbAttributeDefinition
  3

  2
$PL:1
 70
     0
 74
     2
  0
ATTDEF
  5
190
330
186
100
AcDbEntity
  8
A
  6
FIN
 62
     1
100
AcDbText
 10
7.007575511932372
 20
3.153409314516806
 30
0.0
 40
1.512885498915399
  1

 41
0.9200000000000001
  7
ARIAL
 72
     4
 11
7.007575511932372
 21
3.153409314516806
 31
0.0
100
AcDbAttributeDefinition
  3

  2
$PL:2
 70
     0
 74
     2
  0
CIRCLE
  5
191
330
186
100
AcDbEntity
  8
A
  6
SYMBOL_C
 62
     4
100
AcDbCircle
 10
0.0
 20
0.7007585536349552
 30
0.0
 40
0.7007568828987587
  0
CIRCLE
  5
192
330
186
100
AcDbEntity
  8
A
  6
SYMBOL_C
 62
     4
100
AcDbCircle
 10
7.007575511932372
 20
0.7007585536349552
 30
0.0
 40
0.7007568828987587
  0
LWPOLYLINE
  5
193
330
186
100
AcDbEntity
  8
A
  6
FIN
 62
     7
100
AcDbPolyline
 90
        5
 70
     0
 43
0.0
 10
-7.007575511932372
 20
28.03030204772948
 10
14.01515102386475
 20
28.03030204772948
 10
14.01515102386475
 20
0.0
 10
-7.007575511932372
 20
0.0
 10
-7.007575511932372
 20
28.03030204772948
  0
LINE
  5
19A
330
186
100
AcDbEntity
  8
A
  6
FIN
 62
     7
100
AcDbLine
 10
-0.3503801121855759
 20
7.007575511932372
 30
0.0
 11
6.657195399746798
 21
7.007575511932372
 31
0.0
  0
LWPOLYLINE
  5
19B
330
186
100
AcDbEntity
  8
A
  6
FIN
 62
     7
100
AcDbPolyline
 90
        5
 70
     0
 43
0.0
 10
-3.503787755966186
 20
24.87689273321269
 10
10.51136326789856
 20
24.87689273321269
 10
10.51136326789856
 20
17.51893877983093
 10
-3.503787755966186
 20
17.51893877983093
 10
-3.503787755966186
 20
24.87689273321269
  0
CIRCLE
  5
1A2
330
186
100
AcDbEntity
  8
A
  6
FIN
 62
     7
100
AcDbCircle
 10
0.0
 20
15.06628801894907
 30
0.0
 40
0.7007585536349552
  0
CIRCLE
  5
1A3
330
186
100
AcDbEntity
  8
A
  6
FIN
 62
     7
100
AcDbCircle
 10
3.503787755966186
 20
15.06628801894907
 30
0.0
 40
0.7007585536349552
  0
CIRCLE
  5
1A4
330
186
100
AcDbEntity
  8
A
  6
FIN
 62
     7
100
AcDbCircle
 10
7.007575511932372
 20
15.06628801894907
 30
0.0
 40
0.7007585536349552
  0
CIRCLE
  5
1A5
330
186
100
AcDbEntity
  8
A
  6
FIN
 62
     7
100
AcDbCircle
 10
-1.751893773562081
 20
12.26325881661785
 30
0.0
 40
0.7007585536349552
  0
CIRCLE
  5
1A6
330
186
100
AcDbEntity
  8
A
  6
FIN
 62
     7
100
AcDbCircle
 10
1.751893877983093
 20
12.26325881661785
 30
0.0
 40
0.7007585536349552
  0
CIRCLE
  5
1A7
330
186
100
AcDbEntity
  8
A
  6
FIN
 62
     7
100
AcDbCircle
 10
5.25568163394928
 20
12.26325881661785
 30
0.0
 40
0.7007585536349552
  0
CIRCLE
  5
1A8
330
186
100
AcDbEntity
  8
A
  6
FIN
 62
     7
100
AcDbCircle
 10
8.759469389915466
 20
12.26325881661785
 30
0.0
 40
0.7007585536349552
  0
TEXT
  5
1A9
330
186
100
AcDbEntity
  8
A
  6
FIN
 62
     1
100
AcDbText
 10
-0.4405916306808165
 20
7.651013252341931
 30
0.0
 40
1.512885498915399
  1
Bus KNX
 41
0.9200000000000001
  7
ARIAL
 72
     4
 11
3.503787755966186
 21
8.395072218725289
 31
0.0
100
AcDbText
  0
TEXT
  5
1AA
330
186
100
AcDbEntity
  8
A
  6
FIN
 62
     1
100
AcDbText
 10
5.710663189833489
 20
4.485221616644953
 30
0.0
 40
1.512885498915399
  1
BK
 41
0.9200000000000001
  7
ARIAL
 72
     4
 11
7.007575511932372
 21
5.241664366102653
 31
0.0
100
AcDbText
  0
TEXT
  5
1AB
330
186
100
AcDbEntity
  8
A
  6
FIN
 62
     1
100
AcDbText
 10
-1.404197162799595
 20
4.485221616644953
 30
0.0
 40
1.512885498915399
  1
RD
 41
0.9200000000000001
  7
ARIAL
 72
     4
 11
0.0
 21
5.241664366102653
 31
0.0
100
AcDbText
  0
ENDBLK
  5
1AD
330
186
100
AcDbEntity
  8
0
100
AcDbBlockEnd
  0
BLOCK
  5
1E9
330
1B5
100
AcDbEntity
  8
0
100
AcDbBlockBegin
  2
_I449_KNX_0_3_1
 70
     2
 10
0.0
 20
0.0
 30
0.0
  3
_I449_KNX_0_3_1
  1

  0
ATTDEF
  5
1B6
330
1B5
100
AcDbEntity
  8
A
  6
FIN
 62
     3
100
AcDbText
 10
-15.76704490184783
 20
-11.55874553637845
 30
0.0
 40
2.094764536959783
  1

 41
0.9200000000000001
  7
ARIAL
 72
     2
 11
-15.76704490184783
 21
-10.51136326789856
 31
0.0
100
AcDbAttributeDefinition
  3

  2
$ETIQUETTE
 70
     0
 74
     2
  0
ATTDEF
  5
1B7
330
1B5
100
AcDbEntity
  8
A
  6
FIN
 62
     3
100
AcDbText
 10
-15.76704490184783
 20
-8.288962084988964
 30
0.0
 40
1.86201292174203
  1

 41
0.9200000000000001
  7
ARIAL
 72
     2
 11
-15.76704490184783
 21
-7.357955624117948
 31
0.0
100
AcDbAttributeDefinition
  3

  2
$LOCALISATION
 70
     0
 74
     2
  0
ATTDEF
  5
1B8
330
1B5
100
AcDbEntity
  8
A
  6
FIN
 62
     3
100
AcDbText
 10
-15.76704490184783
 20
-5.485927870449143
 30
0.0
 40
1.86201292174203
  1

 41
0.9200000000000001
  7
ARIAL
 72
     2
 11
-15.76704490184783
 21
-4.554921409578128
 31
0.0
100
AcDbAttributeDefinition
  3

  2
$FONCTION
 70
     0
 74
     2
  0
ATTDEF
  5
1B9
330
1B5
100
AcDbEntity
  8
A
  6
FIN
 62
     1
100
AcDbText
 10
-15.76704490184783
 20
-19.73508319889059
 30
0.0
 40
1.629261306524276
  1

 41
0.9200000000000001
  7
ARIAL
 72
     2
 11
-15.76704490184783
 21
-18.92045254562845
 31
0.0
100
AcDbAttributeDefinition
  3

  2
$POS_REFCRO_1
 70
     0
 74
     2
  0
ATTDEF
  5
1BA
330
1B5
100
AcDbEntity
  8
A
  6
FIN
 62
     1
100
AcDbText
 10
-15.76704490184783
 20
-16.93204898435077
 30
0.0
 40
1.629261306524276
  1

 41
0.9200000000000001
  7
ARIAL
 72
     2
 11
-15.76704490184783
 21
-16.11741833108863
 31
0.0
100
AcDbAttributeDefinition
  3

  2
CODE
 70
     0
 74
     2
  0
ATTDEF
  5
1BB
330
1B5
100
AcDbEntity
  8
A
  6
FIN
 62
     1
100
AcDbText
 10
-15.76704490184783
 20
-22.18773061830005
 30
0.0
 40
1.629261306524276
  1

 41
0.9200000000000001
  7
ARIAL
 72
     2
 11
-15.76704490184783
 21
-21.37309996503791
 31
0.0
100
AcDbAttributeDefinition
  3

  2
SYMBOLE
 70
     0
 74
     2
  0
ATTDEF
  5
1BC
330
1B5
100
AcDbEntity
  8
A
  6
FIN
 62
     1
100
AcDbText
 10
-15.76704490184783
 20
-14.4794015649413
 30
0.0
 40
1.629261306524276
  1

 41
0.9200000000000001
  7
ARIAL
 72
     2
 11
-15.76704490184783
 21
-13.66477091167917
 31
0.0
100
AcDbAttributeDefinition
  3

  2
FABRICANT
 70
     0
 74
     2
  0
ATTDEF
  5
1BD
330
1B5
100
AcDbEntity
  8
A
  6
FIN
 62
     1
100
AcDbText
 10
-15.76703821890305
 20
-24.64038472065428
 30
0.0
 40
1.629261306524276
  1

 41
0.9200000000000001
  7
ARIAL
 72
     2
 11
-15.76703821890305
 21
-23.82575406739215
 31
0.0
100
AcDbAttributeDefinition
  3

  2
SERIE
 70
     0
 74
     2
  0
ATTDEF
  5
1BE
330
1B5
100
AcDbEntity
  8
A
  6
FIN
 62
     1
100
AcDbText
 10
-7.007575511932372
 20
-24.87689273321269
 30
0.0
 40
1.512885498915399
  1

 41
0.9200000000000001
  7
ARIAL
 72
     4
 11
-7.007575511932372
 21
-24.87689273321269
 31
0.0
100
AcDbAttributeDefinition
  3

  2
$PL:1
 70
     0
 74
     2
  0
ATTDEF
  5
1BF
330
1B5
100
AcDbEntity
  8
A
  6
FIN
 62
     1
100
AcDbText
 10
0.0
 20
-24.87689273321269
 30
0.0
 40
1.512885498915399
  1

 41
0.9200000000000001
  7
ARIAL
 72
     4
 11
0.0
 21
-24.87689273321269
 31
0.0
100
AcDbAttributeDefinition
  3

  2
$PL:2
 70
     0
 74
     2
  0
ATTDEF
  5
1C0
330
1B5
100
AcDbEntity
  8
A
  6
FIN
 62
     1
100
AcDbText
 10
7.007575511932372
 20
-24.87689273321269
 30
0.0
 40
1.512885498915399
  1

 41
0.9200000000000001
  7
ARIAL
 72
     4
 11
7.007575511932372
 21
-24.87689273321269
 31
0.0
100
AcDbAttributeDefinition
  3

  2
$PL:3
 70
     0
 74
     2
  0
ATTDEF
  5
1C1
330
1B5
100
AcDbEntity
  8
A
  6
FIN
 62
     1
100
AcDbText
 10
14.01515102386475
 20
-24.87689273321269
 30
0.0
 40
1.512885498915399
  1

 41
0.9200000000000001
  7
ARIAL
 72
     4
 11
14.01515102386475
 21
-24.87689273321269
 31
0.0
100
AcDbAttributeDefinition
  3

  2
$PL:4
 70
     0
 74
     2
  0
ATTDEF
  5
1C2
330
1B5
100
AcDbEntity
  8
A
  6
FIN
 62
     1
100
AcDbText
 10
0.0
 20
-6.657197070482994
 30
0.0
 40
1.512885498915399
  1

 41
0.9200000000000001
  7
ARIAL
 72
     4
 11
0.0
 21
-6.657197070482994
 31
0.0
100
AcDbAttributeDefinition
  3

  2
$PL:5
 70
     0
 74
     2
  0
LWPOLYLINE
  5
1C3
330
1B5
100
AcDbEntity
  8
A
  6
FIN
 62
     7
100
AcDbPolyline
 90
        5
 70
     0
 43
0.0
 10
-14.01515102386475
 20
0.0
 10
21.02272653579712
 20
0.0
 10
21.02272653579712
 20
-28.03030204772948
 10
-14.01515102386475
 20
-28.03030204772948
 10
-14.01515102386475
 20
0.0
  0
CIRCLE
  5
1CA
330
1B5
100
AcDbEntity
  8
A
  6
SYMBOL_C
 62
     4
100
AcDbCircle
 10
14.01515102386475
 20
-27.32954349409453
 30
0.0
 40
0.7007568828987587
  0
CIRCLE
  5
1CB
330
1B5
100
AcDbEntity
  8
A
  6
SYMBOL_C
 62
     4
100
AcDbCircle
 10
-7.007575511932372
 20
-27.32954182335834
 30
0.0
 40
0.7007568828987587
  0
CIRCLE
  5
1CC
330
1B5
100
AcDbEntity
  8
A
  6
SYMBOL_C
 62
     4
100
AcDbCircle
 10
0.0
 20
-27.32954349409453
 30
0.0
 40
0.7007568828987587
  0
CIRCLE
  5
1CD
330
1B5
100
AcDbEntity
  8
A
  6
SYMBOL_C
 62
     4
100
AcDbCircle
 10
7.007575511932372
 20
-27.32954182335834
 30
0.0
 40
0.7007568828987587
  0
LINE
  5
1CE
330
1B5
100
AcDbEntity
  8
A
  6
FIN
 62
     7
100
AcDbLine
 10
-7.007575511932372
 20
-21.02272653579712
 30
0.0
 11
14.01515102386475
 21
-21.02272653579712
 31
0.0
  0
LWPOLYLINE
  5
1CF
330
1B5
100
AcDbEntity
  8
A
  6
FIN
 62
     7
100
AcDbPolyline
 90
        5
 70
     0
 43
0.0
 10
2.927153415419966
 20
-0.2192557493807765
 10
2.927153415419966
 20
-5.364969918455103
 10
-2.922607759913332
 20
-5.364969918455103
 10
-2.922607759913332
 20
-0.2192557493807765
 10
2.927153415419966
 20
-0.2192557493807765
  0
LWPOLYLINE
  5
1D6
330
1B5
100
AcDbEntity
  8
A
  6
FIN
 62
     7
100
AcDbPolyline
 90
        5
 70
     0
 43
0.0
 10
-1.751893877983093
 20
-2.452652222776023
 10
1.751893877983093
 20
-2.452652222776023
 10
1.751893877983093
 20
-3.503787755966186
 10
-1.751893877983093
 20
-3.503787755966186
 10
-1.751893877983093
 20
-2.452652222776023
  0
HATCH
  5
1DD
330
1B5
100
AcDbEntity
  8
A
  6
FIN
 62
     7
100
AcDbHatch
 10
0.0
 20
0.0
 30
0.0
210
0.0
220
0.0
230
1.0
  2
SOLID
 70
     1
 71
     0
 91
        1
 92
        0
 93
        4
 72
     1
 10
-1.751893877983093
 20
-2.452652222776023
 11
1.751893877983093
 21
-2.452652222776023
 72
     1
 10
1.751893877983093
 20
-2.452652222776023
 11
1.751893877983093
 21
-3.503787755966186
 72
     1
 10
1.751893877983093
 20
-3.503787755966186
 11
-1.751893877983093
 21
-3.503787755966186
 72
     1
 10
-1.751893877983093
 20
-3.503787755966186
 11
-1.751893877983093
 21
-2.452652222776023
 97
        0
 75
     0
 76
     1
 98
        0
  0
LINE
  5
1DE
330
1B5
100
AcDbEntity
  8
A
  6
FIN
 62
     7
100
AcDbLine
 10
-2.452650760881851
 20
-1.751893877983093
 30
0.0
 11
-1.401515436533714
 21
-0.7007575094248324
 31
0.0
  0
LINE
  5
1DF
330
1B5
100
AcDbEntity
  8
A
  6
FIN
 62
     7
100
AcDbLine
 10
2.452650760881851
 20
-1.751893877983093
 30
0.0
 11
1.401515436533714
 21
-0.7007575094248324
 31
0.0
  0
LINE
  5
1E0
330
1B5
100
AcDbEntity
  8
A
  6
FIN
 62
     7
100
AcDbLine
 10
-1.401515436533714
 20
-0.7007575094248324
 30
0.0
 11
1.401515436533714
 21
-0.7007575094248324
 31
0.0
  0
LINE
  5
1E1
330
1B5
100
AcDbEntity
  8
A
  6
FIN
 62
     7
100
AcDbLine
 10
-2.452650760881851
 20
-1.751893877983093
 30
0.0
 11
-2.452651387407925
 21
-4.905302774815851
 31
0.0
  0
LINE
  5
1E2
330
1B5
100
AcDbEntity
  8
A
  6
FIN
 62
     7
100
AcDbLine
 10
-2.452650760881851
 20
-4.905302357131802
 30
0.0
 11
2.452650760881851
 21
-4.905302357131802
 31
0.0
  0
LINE
  5
1E3
330
1B5
100
AcDbEntity
  8
A
  6
FIN
 62
     7
100
AcDbLine
 10
2.452651387407925
 20
-4.905302774815851
 30
0.0
 11
2.452650760881851
 21
-1.751893877983093
 31
0.0
  0
TEXT
  5
1E4
330
1B5
100
AcDbEntity
  8
A
  6
FIN
 62
     1
100
AcDbText
 10
-1.296908980626489
 20
-23.54508147529466
 30
0.0
 40
1.512885498915399
  1
BK
 41
0.9200000000000001
  7
ARIAL
 72
     4
 11
0.000003341472393
 21
-22.78863872583695
 31
0.0
100
AcDbText
  0
TEXT
  5
1E5
330
1B5
100
AcDbEntity
  8
A
  6
FIN
 62
     1
100
AcDbText
 10
-8.411772257047919
 20
-23.54508147529466
 30
0.0
 40
1.512885498915399
  1
RD
 41
0.9200000000000001
  7
ARIAL
 72
     4
 11
-7.007575094248324
 21
-22.78863872583695
 31
0.0
100
AcDbText
  0
TEXT
  5
1E6
330
1B5
100
AcDbEntity
  8
A
  6
FIN
 62
     1
100
AcDbText
 10
12.71824120787015
 20
-23.54508147529466
 30
0.0
 40
1.512885498915399
  1
BK
 41
0.9200000000000001
  7
ARIAL
 72
     4
 11
14.01515352996903
 21
-22.78863872583695
 31
0.0
100
AcDbText
  0
TEXT
  5
1E7
330
1B5
100
AcDbEntity
  8
A
  6
FIN
 62
     1
100
AcDbText
 10
5.603377931448729
 20
-23.54508147529466
 30
0.0
 40
1.512885498915399
  1
RD
 41
0.9200000000000001
  7
ARIAL
 72
     4
 11
7.007575094248324
 21
-22.78863872583695
 31
0.0
100
AcDbText
  0
TEXT
  5
1E8
330
1B5
100
AcDbEntity
  8
A
  6
FIN
 62
     1
100
AcDbText
 10
-0.4405916306808165
 20
-20.02890993625413
 30
0.0
 40
1.512885498915399
  1
Bus KNX
 41
0.9200000000000001
  7
ARIAL
 72
     4
 11
3.503787755966186
 21
-19.28485096987077
 31
0.0
100
AcDbText
  0
ENDBLK
  5
1EA
330
1B5
100
AcDbEntity
  8
0
100
AcDbBlockEnd
  0
BLOCK
  5
200
330
1F7
100
AcDbEntity
  8
0
100
AcDbBlockBegin
  2
018C0_001_0_3_1
 70
     2
 10
0.0
 20
0.0
 30
0.0
  3
018C0_001_0_3_1
  1

  0
ATTDEF
  5
1F8
330
1F7
100
AcDbEntity
  8
A
  6
FIN
 62
     3
100
AcDbText
 10
-2.803030246541354
 20
-0.464251872444469
 30
0.0
 40
1.629261306524276
  1

 41
0.9200000000000001
  7
ARIAL
 72
     2
 11
-2.803030246541354
 21
0.3503787808176693
 31
0.0
100
AcDbAttributeDefinition
  3

  2
$REPERE
 70
     0
 74
     2
  0
ATTDEF
  5
1F9
330
1F7
100
AcDbEntity
  8
A
  6
FIN
 62
     1
100
AcDbText
 10
-3.503787755966186
 20
-0.4642304922422045
 30
0.0
 40
1.629261306524276
  1

 41
0.9200000000000001
  7
ARIAL
 72
     2
 11
-3.503787755966186
 21
0.3504001610199339
 31
0.0
100
AcDbAttributeDefinition
  3

  2
$POS_REFCRO_1
 70
     0
 74
     2
  0
LWPOLYLINE
  5
1FA
330
1F7
100
AcDbEntity
  8
A
  6
CYAN
 62
     4
100
AcDbPolyline
 90
        4
 70
     0
 43
0.0
 10
0.0
 20
0.0
 10
-1.681818189693216
 20
0.8409090948466086
 10
-1.681818189693216
 20
-0.8409090948466086
 10
0.0
 20
0.0
  0
ENDBLK
  5
201
330
1F7
100
AcDbEntity
  8
0
100
AcDbBlockEnd
  0
BLOCK
  5
210
330
206
100
AcDbEntity
  8
0
100
AcDbBlockBegin
  2
006C0_001_0_3_1
 70
     2
 10
0.0
 20
0.0
 30
0.0
  3
006C0_001_0_3_1
  1

  0
ATTDEF
  5
207
330
206
100
AcDbEntity
  8
A
  6
FIN
 62
     3
100
AcDbText
 10
-2.803030246541354
 20
-0.464251872444469
 30
0.0
 40
1.629261306524276
  1

 41
0.9200000000000001
  7
ARIAL
 72
     2
 11
-2.803030246541354
 21
0.3503787808176693
 31
0.0
100
AcDbAttributeDefinition
  3

  2
$REPERE
 70
     0
 74
     2
  0
ATTDEF
  5
208
330
206
100
AcDbEntity
  8
A
  6
FIN
 62
     1
100
AcDbText
 10
1.751893877983093
 20
1.287642083854383
 30
0.0
 40
1.629261306524276
  1

 41
0.9200000000000001
  7
ARIAL
 11
1.751893877983093
 21
2.102272737116521
 31
0.0
100
AcDbAttributeDefinition
  3

  2
$NUM_EQUI
 70
     0
 74
     2
  0
ATTDEF
  5
209
330
206
100
AcDbEntity
  8
A
  6
FIN
 62
     1
100
AcDbText
 10
-3.503787755966186
 20
-0.4642304922422045
 30
0.0
 40
1.629261306524276
  1

 41
0.9200000000000001
  7
ARIAL
 72
     2
 11
-3.503787755966186
 21
0.3504001610199339
 31
0.0
100
AcDbAttributeDefinition
  3

  2
$POS_REFCRO_1
 70
     0
 74
     2
  0
LWPOLYLINE
  5
20A
330
206
100
AcDbEntity
  8
A
  6
CYAN
 62
     4
100
AcDbPolyline
 90
        4
 70
     0
 43
0.0
 10
0.0
 20
0.0
 10
-1.681818189693216
 20
0.8409090948466086
 10
-1.681818189693216
 20
-0.8409090948466086
 10
0.0
 20
0.0
  0
ENDBLK
  5
211
330
206
100
AcDbEntity
  8
0
100
AcDbBlockEnd
  0
BLOCK
  5
26A
330
216
100
AcDbEntity
  8
0
100
AcDbBlockBegin
  2
_I450_KNX_0_3_1
 70
     2
 10
0.0
 20
0.0
 30
0.0
  3
_I450_KNX_0_3_1
  1

  0
ATTDEF
  5
217
330
216
100
AcDbEntity
  8
A
  6
FIN
 62
     3
100
AcDbText
 10
-8.759469389915466
 20
-11.55874553637845
 30
0.0
 40
2.094764536959783
  1

 41
0.9200000000000001
  7
ARIAL
 72
     2
 11
-8.759469389915466
 21
-10.51136326789856
 31
0.0
100
AcDbAttributeDefinition
  3

  2
$ETIQUETTE
 70
     0
 74
     2
  0
ATTDEF
  5
218
330
216
100
AcDbEntity
  8
A
  6
FIN
 62
     3
100
AcDbText
 10
-8.759469389915466
 20
-8.288962084988964
 30
0.0
 40
1.86201292174203
  1

 41
0.9200000000000001
  7
ARIAL
 72
     2
 11
-8.759469389915466
 21
-7.357955624117948
 31
0.0
100
AcDbAttributeDefinition
  3

  2
$LOCALISATION
 70
     0
 74
     2
  0
ATTDEF
  5
219
330
216
100
AcDbEntity
  8
A
  6
FIN
 62
     3
100
AcDbText
 10
-8.759469389915466
 20
-5.485927870449143
 30
0.0
 40
1.86201292174203
  1

 41
0.9200000000000001
  7
ARIAL
 72
     2
 11
-8.759469389915466
 21
-4.554921409578128
 31
0.0
100
AcDbAttributeDefinition
  3

  2
$FONCTION
 70
     0
 74
     2
  0
ATTDEF
  5
21A
330
216
100
AcDbEntity
  8
A
  6
FIN
 62
     1
100
AcDbText
 10
-8.759469389915466
 20
-19.73508319889059
 30
0.0
 40
1.629261306524276
  1

 41
0.9200000000000001
  7
ARIAL
 72
     2
 11
-8.759469389915466
 21
-18.92045254562845
 31
0.0
100
AcDbAttributeDefinition
  3

  2
$POS_REFCRO_1
 70
     0
 74
     2
  0
ATTDEF
  5
21B
330
216
100
AcDbEntity
  8
A
  6
FIN
 62
     1
100
AcDbText
 10
-8.759469389915466
 20
-16.93204898435077
 30
0.0
 40
1.629261306524276
  1

 41
0.9200000000000001
  7
ARIAL
 72
     2
 11
-8.759469389915466
 21
-16.11741833108863
 31
0.0
100
AcDbAttributeDefinition
  3

  2
CODE
 70
     0
 74
     2
  0
ATTDEF
  5
21C
330
216
100
AcDbEntity
  8
A
  6
FIN
 62
     1
100
AcDbText
 10
-8.759471060651662
 20
-22.18773061830005
 30
0.0
 40
1.629261306524276
  1

 41
0.9200000000000001
  7
ARIAL
 72
     2
 11
-8.759471060651662
 21
-21.37309996503791
 31
0.0
100
AcDbAttributeDefinition
  3

  2
SYMBOLE
 70
     0
 74
     2
  0
ATTDEF
  5
21D
330
216
100
AcDbEntity
  8
A
  6
FIN
 62
     1
100
AcDbText
 10
-8.759469389915466
 20
-14.4794015649413
 30
0.0
 40
1.629261306524276
  1

 41
0.9200000000000001
  7
ARIAL
 72
     2
 11
-8.759469389915466
 21
-13.66477091167917
 31
0.0
100
AcDbAttributeDefinition
  3

  2
FABRICANT
 70
     0
 74
     2
  0
ATTDEF
  5
21E
330
216
100
AcDbEntity
  8
A
  6
FIN
 62
     1
100
AcDbText
 10
-8.75946270697068
 20
-24.64038472065428
 30
0.0
 40
1.629261306524276
  1

 41
0.9200000000000001
  7
ARIAL
 72
     2
 11
-8.75946270697068
 21
-23.82575406739215
 31
0.0
100
AcDbAttributeDefinition
  3

  2
SERIE
 70
     0
 74
     2
  0
ATTDEF
  5
21F
330
216
100
AcDbEntity
  8
A
  6
FIN
 62
     1
100
AcDbText
 10
0.0
 20
-2.452651387407925
 30
0.0
 40
1.512885498915399
  1

 41
0.9200000000000001
  7
ARIAL
 72
     4
 11
0.0
 21
-2.452651387407925
 31
0.0
100
AcDbAttributeDefinition
  3

  2
$PL:1
 70
     0
 74
     2
  0
ATTDEF
  5
220
330
216
100
AcDbEntity
  8
A
  6
FIN
 62
     1
100
AcDbText
 10
7.007575511932372
 20
-2.45265159624995
 30
0.0
 40
1.512885498915399
  1

 41
0.9200000000000001
  7
ARIAL
 72
     4
 11
7.007575511932372
 21
-2.45265159624995
 31
0.0
100
AcDbAttributeDefinition
  3

  2
$PL:2
 70
     0
 74
     2
  0
ATTDEF
  5
221
330
216
100
AcDbEntity
  8
A
  6
FIN
 62
     1
100
AcDbText
 10
21.02272653579712
 20
-2.45265159624995
 30
0.0
 40
1.512885498915399
  1

 41
0.9200000000000001
  7
ARIAL
 72
     4
 11
21.02272653579712
 21
-2.45265159624995
 31
0.0
100
AcDbAttributeDefinition
  3

  2
$PL:3
 70
     0
 74
     2
  0
ATTDEF
  5
222
330
216
100
AcDbEntity
  8
A
  6
FIN
 62
     1
100
AcDbText
 10
28.03030204772948
 20
-2.452651387407925
 30
0.0
 40
1.512885498915399
  1

 41
0.9200000000000001
  7
ARIAL
 72
     4
 11
28.03030204772948
 21
-2.452651387407925
 31
0.0
100
AcDbAttributeDefinition
  3

  2
$PL:4
 70
     0
 74
     2
  0
ATTDEF
  5
223
330
216
100
AcDbEntity
  8
A
  6
FIN
 62
     1
100
AcDbText
 10
42.04545307159424
 20
-2.452651387407925
 30
0.0
 40
1.512885498915399
  1

 41
0.9200000000000001
  7
ARIAL
 72
     4
 11
42.04545307159424
 21
-2.452651387407925
 31
0.0
100
AcDbAttributeDefinition
  3

  2
$PL:5
 70
     0
 74
     2
  0
ATTDEF
  5
224
330
216
100
AcDbEntity
  8
A
  6
FIN
 62
     1
100
AcDbText
 10
49.05302858352661
 20
-2.452651387407925
 30
0.0
 40
1.512885498915399
  1

 41
0.9200000000000001
  7
ARIAL
 72
     4
 11
49.05302858352661
 21
-2.452651387407925
 31
0.0
100
AcDbAttributeDefinition
  3

  2
$PL:6
 70
     0
 74
     2
  0
ATTDEF
  5
225
330
216
100
AcDbEntity
  8
A
  6
FIN
 62
     1
100
AcDbText
 10
63.06817960739135
 20
-2.452651387407925
 30
0.0
 40
1.512885498915399
  1

 41
0.9200000000000001
  7
ARIAL
 72
     4
 11
63.06817960739135
 21
-2.452651387407925
 31
0.0
100
AcDbAttributeDefinition
  3

  2
$PL:7
 70
     0
 74
     2
  0
ATTDEF
  5
226
330
216
100
AcDbEntity
  8
A
  6
FIN
 62
     1
100
AcDbText
 10
70.07575511932373
 20
-2.452651387407925
 30
0.0
 40
1.512885498915399
  1

 41
0.9200000000000001
  7
ARIAL
 72
     4
 11
70.07575511932373
 21
-2.452651387407925
 31
0.0
100
AcDbAttributeDefinition
  3

  2
$PL:8
 70
     0
 74
     2
  0
ATTDEF
  5
227
330
216
100
AcDbEntity
  8
A
  6
FIN
 62
     1
100
AcDbText
 10
84.09090614318849
 20
-2.452651387407925
 30
0.0
 40
1.512885498915399
  1

 41
0.9200000000000001
  7
ARIAL
 72
     4
 11
84.09090614318849
 21
-2.452651387407925
 31
0.0
100
AcDbAttributeDefinition
  3

  2
$PL:9
 70
     0
 74
     2
  0
ATTDEF
  5
228
330
216
100
AcDbEntity
  8
A
  6
FIN
 62
     1
100
AcDbText
 10
91.09848165512085
 20
-2.452651387407925
 30
0.0
 40
1.512885498915399
  1

 41
0.9200000000000001
  7
ARIAL
 72
     4
 11
91.09848165512085
 21
-2.452651387407925
 31
0.0
100
AcDbAttributeDefinition
  3

  2
$PL:10
 70
     0
 74
     2
  0
ATTDEF
  5
229
330
216
100
AcDbEntity
  8
A
  6
FIN
 62
     1
100
AcDbText
 10
105.1136326789855
 20
-2.452651387407925
 30
0.0
 40
1.512885498915399
  1

 41
0.9200000000000001
  7
ARIAL
 72
     4
 11
105.1136326789855
 21
-2.452651387407925
 31
0.0
100
AcDbAttributeDefinition
  3

  2
$PL:11
 70
     0
 74
     2
  0
ATTDEF
  5
22A
330
216
100
AcDbEntity
  8
A
  6
FIN
 62
     1
100
AcDbText
 10
112.121208190918
 20
-2.452651387407925
 30
0.0
 40
1.512885498915399
  1

 41
0.9200000000000001
  7
ARIAL
 72
     4
 11
112.121208190918
 21
-2.452651387407925
 31
0.0
100
AcDbAttributeDefinition
  3

  2
$PL:12
 70
     0
 74
     2
  0
ATTDEF
  5
22B
330
216
100
AcDbEntity
  8
A
  6
FIN
 62
     1
100
AcDbText
 10
126.1363592147827
 20
-2.452651387407925
 30
0.0
 40
1.512885498915399
  1

 41
0.9200000000000001
  7
ARIAL
 72
     4
 11
126.1363592147827
 21
-2.452651387407925
 31
0.0
100
AcDbAttributeDefinition
  3

  2
$PL:13
 70
     0
 74
     2
  0
ATTDEF
  5
22C
330
216
100
AcDbEntity
  8
A
  6
FIN
 62
     1
100
AcDbText
 10
133.143934726715
 20
-2.452651387407925
 30
0.0
 40
1.512885498915399
  1

 41
0.9200000000000001
  7
ARIAL
 72
     4
 11
133.143934726715
 21
-2.452651387407925
 31
0.0
100
AcDbAttributeDefinition
  3

  2
$PL:14
 70
     0
 74
     2
  0
ATTDEF
  5
22D
330
216
100
AcDbEntity
  8
A
  6
FIN
 62
     1
100
AcDbText
 10
147.1590857505798
 20
-2.452651387407925
 30
0.0
 40
1.512885498915399
  1

 41
0.9200000000000001
  7
ARIAL
 72
     4
 11
147.1590857505798
 21
-2.452651387407925
 31
0.0
100
AcDbAttributeDefinition
  3

  2
$PL:15
 70
     0
 74
     2
  0
ATTDEF
  5
22E
330
216
100
AcDbEntity
  8
A
  6
FIN
 62
     1
100
AcDbText
 10
154.1666612625121
 20
-2.452651387407925
 30
0.0
 40
1.512885498915399
  1

 41
0.9200000000000001
  7
ARIAL
 72
     4
 11
154.1666612625121
 21
-2.452651387407925
 31
0.0
100
AcDbAttributeDefinition
  3

  2
$PL:16
 70
     0
 74
     2
  0
ATTDEF
  5
22F
330
216
100
AcDbEntity
  8
A
  6
FIN
 62
     1
100
AcDbText
 10
168.1818122863769
 20
-2.452651387407925
 30
0.0
 40
1.512885498915399
  1

 41
0.9200000000000001
  7
ARIAL
 72
     4
 11
168.1818122863769
 21
-2.452651387407925
 31
0.0
100
AcDbAttributeDefinition
  3

  2
$PL:17
 70
     0
 74
     2
  0
ATTDEF
  5
230
330
216
100
AcDbEntity
  8
A
  6
FIN
 62
     1
100
AcDbText
 10
175.1893877983093
 20
-2.452651387407925
 30
0.0
 40
1.512885498915399
  1

 41
0.9200000000000001
  7
ARIAL
 72
     4
 11
175.1893877983093
 21
-2.452651387407925
 31
0.0
100
AcDbAttributeDefinition
  3

  2
$PL:18
 70
     0
 74
     2
  0
ATTDEF
  5
231
330
216
100
AcDbEntity
  8
A
  6
FIN
 62
     1
100
AcDbText
 10
0.0
 20
-24.87689273321269
 30
0.0
 40
1.512885498915399
  1

 41
0.9200000000000001
  7
ARIAL
 72
     4
 11
0.0
 21
-24.87689273321269
 31
0.0
100
AcDbAttributeDefinition
  3

  2
$PL:25
 70
     0
 74
     2
  0
ATTDEF
  5
232
330
216
100
AcDbEntity
  8
A
  6
FIN
 62
     1
100
AcDbText
 10
7.007575511932372
 20
-24.87689273321269
 30
0.0
 40
1.512885498915399
  1

 41
0.9200000000000001
  7
ARIAL
 72
     4
 11
7.007575511932372
 21
-24.87689273321269
 31
0.0
100
AcDbAttributeDefinition
  3

  2
$PL:26
 70
     0
 74
     2
  0
ATTDEF
  5
233
330
216
100
AcDbEntity
  8
A
  6
FIN
 62
     1
100
AcDbText
 10
14.01515102386475
 20
-24.87689273321269
 30
0.0
 40
1.512885498915399
  1

 41
0.9200000000000001
  7
ARIAL
 72
     4
 11
14.01515102386475
 21
-24.87689273321269
 31
0.0
100
AcDbAttributeDefinition
  3

  2
$PL:27
 70
     0
 74
     2
  0
ATTDEF
  5
234
330
216
100
AcDbEntity
  8
A
  6
FIN
 62
     1
100
AcDbText
 10
21.02272653579712
 20
-24.87689273321269
 30
0.0
 40
1.512885498915399
  1

 41
0.9200000000000001
  7
ARIAL
 72
     4
 11
21.02272653579712
 21
-24.87689273321269
 31
0.0
100
AcDbAttributeDefinition
  3

  2
$PL:28
 70
     0
 74
     2
  0
LWPOLYLINE
  5
235
330
216
100
AcDbEntity
  8
A
  6
FIN
 62
     7
100
AcDbPolyline
 90
        5
 70
     0
 43
0.0
 10
-7.007575511932372
 20
0.0
 10
182.1969633102417
 20
0.0
 10
182.1969633102417
 20
-28.03030204772948
 10
-7.007575511932372
 20
-28.03030204772948
 10
-7.007575511932372
 20
0.0
  0
CIRCLE
  5
23C
330
216
100
AcDbEntity
  8
A
  6
SYMBOL_C
 62
     4
100
AcDbCircle
 10
28.03030204772948
 20
-0.7007568828987587
 30
0.0
 40
0.7007568828987587
  0
CIRCLE
  5
23D
330
216
100
AcDbEntity
  8
A
  6
SYMBOL_C
 62
     4
100
AcDbCircle
 10
42.04545307159424
 20
-0.7007568828987587
 30
0.0
 40
0.7007568828987587
  0
CIRCLE
  5
23E
330
216
100
AcDbEntity
  8
A
  6
SYMBOL_C
 62
     4
100
AcDbCircle
 10
49.05302858352661
 20
-0.7007568828987587
 30
0.0
 40
0.7007568828987587
  0
CIRCLE
  5
23F
330
216
100
AcDbEntity
  8
A
  6
SYMBOL_C
 62
     4
100
AcDbCircle
 10
70.07575511932373
 20
-0.7007568828987587
 30
0.0
 40
0.7007568828987587
  0
CIRCLE
  5
240
330
216
100
AcDbEntity
  8
A
  6
SYMBOL_C
 62
     4
100
AcDbCircle
 10
63.06817960739135
 20
-0.7007568828987587
 30
0.0
 40
0.7007568828987587
  0
CIRCLE
  5
241
330
216
100
AcDbEntity
  8
A
  6
SYMBOL_C
 62
     4
100
AcDbCircle
 10
84.09090614318849
 20
-0.7007568828987587
 30
0.0
 40
0.7007568828987587
  0
CIRCLE
  5
242
330
216
100
AcDbEntity
  8
A
  6
SYMBOL_C
 62
     4
100
AcDbCircle
 10
112.121208190918
 20
-0.7007568828987587
 30
0.0
 40
0.7007568828987587
  0
CIRCLE
  5
243
330
216
100
AcDbEntity
  8
A
  6
SYMBOL_C
 62
     4
100
AcDbCircle
 10
91.09848165512085
 20
-0.7007568828987587
 30
0.0
 40
0.7007568828987587
  0
CIRCLE
  5
244
330
216
100
AcDbEntity
  8
A
  6
SYMBOL_C
 62
     4
100
AcDbCircle
 10
105.1136326789855
 20
-0.7007568828987587
 30
0.0
 40
0.7007568828987587
  0
CIRCLE
  5
245
330
216
100
AcDbEntity
  8
A
  6
SYMBOL_C
 62
     4
100
AcDbCircle
 10
126.1363592147827
 20
-0.7007568828987587
 30
0.0
 40
0.7007568828987587
  0
CIRCLE
  5
246
330
216
100
AcDbEntity
  8
A
  6
SYMBOL_C
 62
     4
100
AcDbCircle
 10
133.143934726715
 20
-0.7007568828987587
 30
0.0
 40
0.7007568828987587
  0
CIRCLE
  5
247
330
216
100
AcDbEntity
  8
A
  6
SYMBOL_C
 62
     4
100
AcDbCircle
 10
147.1590857505798
 20
-0.7007568828987587
 30
0.0
 40
0.7007568828987587
  0
CIRCLE
  5
248
330
216
100
AcDbEntity
  8
A
  6
SYMBOL_C
 62
     4
100
AcDbCircle
 10
154.1666612625121
 20
-0.7007568828987587
 30
0.0
 40
0.7007568828987587
  0
CIRCLE
  5
249
330
216
100
AcDbEntity
  8
A
  6
SYMBOL_C
 62
     4
100
AcDbCircle
 10
168.1818122863769
 20
-0.7007568828987587
 30
0.0
 40
0.7007568828987587
  0
CIRCLE
  5
24A
330
216
100
AcDbEntity
  8
A
  6
SYMBOL_C
 62
     4
100
AcDbCircle
 10
175.1893877983093
 20
-0.7007568828987587
 30
0.0
 40
0.7007568828987587
  0
CIRCLE
  5
24B
330
216
100
AcDbEntity
  8
A
  6
SYMBOL_C
 62
     4
100
AcDbCircle
 10
0.0
 20
-27.32954516483073
 30
0.0
 40
0.7007568828987587
  0
CIRCLE
  5
24C
330
216
100
AcDbEntity
  8
A
  6
SYMBOL_C
 62
     4
100
AcDbCircle
 10
7.007575511932372
 20
-27.32954516483073
 30
0.0
 40
0.7007568828987587
  0
CIRCLE
  5
24D
330
216
100
AcDbEntity
  8
A
  6
SYMBOL_C
 62
     4
100
AcDbCircle
 10
14.01515102386475
 20
-27.32954516483073
 30
0.0
 40
0.7007568828987587
  0
CIRCLE
  5
24E
330
216
100
AcDbEntity
  8
A
  6
SYMBOL_C
 62
     4
100
AcDbCircle
 10
21.02272653579712
 20
-27.32954516483073
 30
0.0
 40
0.7007568828987587
  0
CIRCLE
  5
24F
330
216
100
AcDbEntity
  8
A
  6
SYMBOL_C
 62
     4
100
AcDbCircle
 10
0.0
 20
-0.7007568828987587
 30
0.0
 40
0.7007568828987587
  0
CIRCLE
  5
250
330
216
100
AcDbEntity
  8
A
  6
SYMBOL_C
 62
     4
100
AcDbCircle
 10
7.007575511932372
 20
-0.7007568828987587
 30
0.0
 40
0.7007568828987587
  0
CIRCLE
  5
251
330
216
100
AcDbEntity
  8
A
  6
SYMBOL_C
 62
     4
100
AcDbCircle
 10
21.02272653579712
 20
-0.7007568828987587
 30
0.0
 40
0.7007568828987587
  0
LINE
  5
252
330
216
100
AcDbEntity
  8
A
  6
FIN
 62
     7
100
AcDbLine
 10
0.0
 20
-21.02272653579712
 30
0.0
 11
21.02272653579712
 21
-21.02272653579712
 31
0.0
  0
LINE
  5
253
330
216
100
AcDbEntity
  8
A
  6
FIN
 62
     7
100
AcDbLine
 10
0.0
 20
-5.25568163394928
 30
0.0
 11
7.007575511932372
 21
-5.25568163394928
 31
0.0
  0
LINE
  5
254
330
216
100
AcDbEntity
  8
A
  6
FIN
 62
     7
100
AcDbLine
 10
21.02272653579712
 20
-5.25568163394928
 30
0.0
 11
28.03030204772948
 21
-5.25568163394928
 31
0.0
  0
LINE
  5
255
330
216
100
AcDbEntity
  8
A
  6
FIN
 62
     7
100
AcDbLine
 10
42.04545307159424
 20
-5.25568163394928
 30
0.0
 11
49.05302858352661
 21
-5.25568163394928
 31
0.0
  0
LINE
  5
256
330
216
100
AcDbEntity
  8
A
  6
FIN
 62
     7
100
AcDbLine
 10
63.06817960739135
 20
-5.25568163394928
 30
0.0
 11
70.07575511932373
 21
-5.25568163394928
 31
0.0
  0
LINE
  5
257
330
216
100
AcDbEntity
  8
A
  6
FIN
 62
     7
100
AcDbLine
 10
84.09090614318849
 20
-5.25568163394928
 30
0.0
 11
91.09848165512085
 21
-5.25568163394928
 31
0.0
  0
LINE
  5
258
330
216
100
AcDbEntity
  8
A
  6
FIN
 62
     7
100
AcDbLine
 10
105.1136326789855
 20
-5.25568163394928
 30
0.0
 11
112.121208190918
 21
-5.25568163394928
 31
0.0
  0
LINE
  5
259
330
216
100
AcDbEntity
  8
A
  6
FIN
 62
     7
100
AcDbLine
 10
126.1363592147827
 20
-5.25568163394928
 30
0.0
 11
133.143934726715
 21
-5.25568163394928
 31
0.0
  0
LINE
  5
25A
330
216
100
AcDbEntity
  8
A
  6
FIN
 62
     7
100
AcDbLine
 10
147.1590857505798
 20
-5.25568163394928
 30
0.0
 11
154.1666612625121
 21
-5.25568163394928
 31
0.0
  0
LINE
  5
25B
330
216
100
AcDbEntity
  8
A
  6
FIN
 62
     7
100
AcDbLine
 10
168.1818122863769
 20
-5.25568163394928
 30
0.0
 11
175.1893877983093
 21
-5.25568163394928
 31
0.0
  0
TEXT
  5
25C
330
216
100
AcDbEntity
  8
A
  6
FIN
 62
     1
100
AcDbText
 10
-0.1173117204729813
 20
-8.127897770882622
 30
0.0
 40
1.512885498915399
  1
230VAC
 41
0.9200000000000001
  7
ARIAL
 72
     4
 11
3.503789009018334
 21
-7.371971012386352
 31
0.0
100
AcDbText
  0
TEXT
  5
25D
330
216
100
AcDbEntity
  8
A
  6
FIN
 62
     1
100
AcDbText
 10
5.710665695937786
 20
-23.54508147529466
 30
0.0
 40
1.512885498915399
  1
BK
 41
0.9200000000000001
  7
ARIAL
 72
     4
 11
7.007578018036668
 21
-22.78863872583695
 31
0.0
100
AcDbText
  0
TEXT
  5
25E
330
216
100
AcDbEntity
  8
A
  6
FIN
 62
     1
100
AcDbText
 10
-1.404197162799595
 20
-23.54508147529466
 30
0.0
 40
1.512885498915399
  1
RD
 41
0.9200000000000001
  7
ARIAL
 72
     4
 11
0.0
 21
-22.78863872583695
 31
0.0
100
AcDbText
  0
TEXT
  5
25F
330
216
100
AcDbEntity
  8
A
  6
FIN
 62
     1
100
AcDbText
 10
19.72581839053872
 20
-23.54508147529466
 30
0.0
 40
1.512885498915399
  1
BK
 41
0.9200000000000001
  7
ARIAL
 72
     4
 11
21.0227307126376
 21
-22.78863872583695
 31
0.0
100
AcDbText
  0
TEXT
  5
260
330
216
100
AcDbEntity
  8
A
  6
FIN
 62
     1
100
AcDbText
 10
12.6109534433811
 20
-23.54508147529466
 30
0.0
 40
1.512885498915399
  1
RD
 41
0.9200000000000001
  7
ARIAL
 72
     4
 11
14.01515060618069
 21
-22.78863872583695
 31
0.0
100
AcDbText
  0
TEXT
  5
261
330
216
100
AcDbEntity
  8
A
  6
FIN
 62
     1
100
AcDbText
 10
6.566983881251557
 20
-20.02890993625413
 30
0.0
 40
1.512885498915399
  1
Bus KNX
 41
0.9200000000000001
  7
ARIAL
 72
     4
 11
10.51136326789856
 21
-19.28485096987077
 31
0.0
100
AcDbText
  0
TEXT
  5
262
330
216
100
AcDbEntity
  8
A
  6
FIN
 62
     1
100
AcDbText
 10
20.68989779897392
 20
-8.115513987808279
 30
0.0
 40
1.512885498915399
  1
INPUT A
 41
0.9200000000000001
  7
ARIAL
 72
     4
 11
24.5265176332357
 21
-7.371971012386352
 31
0.0
100
AcDbText
  0
TEXT
  5
263
330
216
100
AcDbEntity
  8
A
  6
FIN
 62
     1
100
AcDbText
 10
41.7140451283522
 20
-8.115513987808279
 30
0.0
 40
1.512885498915399
  1
INPUT B
 41
0.9200000000000001
  7
ARIAL
 72
     4
 11
45.54924082756043
 21
-7.371971012386352
 31
0.0
100
AcDbText
  0
TEXT
  5
264
330
216
100
AcDbEntity
  8
A
  6
FIN
 62
     1
100
AcDbText
 10
62.68312924379895
 20
-8.128413761844052
 30
0.0
 40
1.512885498915399
  1
INPUT C
 41
0.9200000000000001
  7
ARIAL
 72
     4
 11
66.57196736335753
 21
-7.371971012386352
 31
0.0
100
AcDbText
  0
TEXT
  5
265
330
216
100
AcDbEntity
  8
A
  6
FIN
 62
     1
100
AcDbText
 10
83.70585577959607
 20
-8.115513987808279
 30
0.0
 40
1.512885498915399
  1
INPUT D
 41
0.9200000000000001
  7
ARIAL
 72
     4
 11
87.59469389915466
 21
-7.371971012386352
 31
0.0
100
AcDbText
  0
TEXT
  5
266
330
216
100
AcDbEntity
  8
A
  6
FIN
 62
     1
100
AcDbText
 10
104.7822147113263
 20
-8.115513987808279
 30
0.0
 40
1.512885498915399
  1
INPUT E
 41
0.9200000000000001
  7
ARIAL
 72
     4
 11
108.6174104105345
 21
-7.371971012386352
 31
0.0
100
AcDbText
  0
TEXT
  5
267
330
216
100
AcDbEntity
  8
A
  6
FIN
 62
     1
100
AcDbText
 10
125.85954311526
 20
-8.115513987808279
 30
0.0
 40
1.512885498915399
  1
INPUT F
 41
0.9200000000000001
  7
ARIAL
 72
     4
 11
129.6401469707489
 21
-7.371971012386352
 31
0.0
100
AcDbText
  0
TEXT
  5
268
330
216
100
AcDbEntity
  8
A
  6
FIN
 62
     1
100
AcDbText
 10
146.7199182549525
 20
-8.128413761844052
 30
0.0
 40
1.512885498915399
  1
INPUT G
 41
0.9200000000000001
  7
ARIAL
 72
     4
 11
150.6628735065459
 21
-7.371971012386352
 31
0.0
100
AcDbText
  0
TEXT
  5
269
330
216
100
AcDbEntity
  8
A
  6
FIN
 62
     1
100
AcDbText
 10
167.7967686057293
 20
-8.115513987808279
 30
0.0
 40
1.512885498915399
  1
INPUT H
 41
0.9200000000000001
  7
ARIAL
 72
     4
 11
171.6856067252879
 21
-7.371971012386352
 31
0.0
100
AcDbText
  0
ENDBLK
  5
26B
330
216
100
AcDbEntity
  8
0
100
AcDbBlockEnd
  0
BLOCK
  5
2D3
330
28D
100
AcDbEntity
  8
0
100
AcDbBlockBegin
  2
X12C0_X01_0_3_1
 70
     2
 10
0.0
 20
0.0
 30
0.0
  3
X12C0_X01_0_3_1
  1

  0
ATTDEF
  5
28E
330
28D
100
AcDbEntity
  8
A
  6
FIN
 62
     3
100
AcDbText
 10
1.401515123270677
 20
1.52164492653691
 30
0.0
 40
1.86201292174203
  1

 41
0.9200000000000001
  7
ARIAL
 11
1.401515123270677
 21
2.452651387407925
 31
0.0
100
AcDbAttributeDefinition
  3

  2
$BORNE
 70
     0
 74
     2
  0
ATTDEF
  5
28F
330
28D
100
AcDbEntity
  8
A
  6
FIN
 62
     3
100
AcDbText
 10
-1.401515123270677
 20
1.52164492653691
 30
0.0
 40
1.86201292174203
  1

 41
0.9200000000000001
  7
ARIAL
 72
     2
 11
-1.401515123270677
 21
2.452651387407925
 31
0.0
100
AcDbAttributeDefinition
  3

  2
$NOMCOMP
 70
     0
 74
     2
  0
ATTDEF
  5
290
330
28D
100
AcDbEntity
  8
A
  6
FIN
 62
     1
100
AcDbText
 10
1.401515123270677
 20
-2.566524531245231
 30
0.0
 40
1.629261306524276
  1

 41
0.9200000000000001
  7
ARIAL
 11
1.401515123270677
 21
-1.751893877983093
 31
0.0
100
AcDbAttributeDefinition
  3

  2
$CABABOU
 70
     0
 74
     2
  0
ATTDEF
  5
291
330
28D
100
AcDbEntity
  8
A
  6
FIN
 62
     1
100
AcDbText
 10
1.401515123270677
 20
-4.843986489086443
 30
0.0
 40
1.629261306524276
  1

 41
0.9200000000000001
  7
ARIAL
 11
1.401515123270677
 21
-4.029355835824305
 31
0.0
100
AcDbAttributeDefinition
  3

  2
$BRIN_ABOUTISSANT
 70
     0
 74
     2
  0
ATTDEF
  5
292
330
28D
100
AcDbEntity
  8
A
  6
FIN
 62
     1
100
AcDbText
 10
1.401515123270677
 20
-7.121448864611704
 30
0.0
 40
1.629261306524276
  1

 41
0.9200000000000001
  7
ARIAL
 11
1.401515123270677
 21
-6.306818211349566
 31
0.0
100
AcDbAttributeDefinition
  3

  2
$CODCABA
 70
     0
 74
     2
  0
ATTDEF
  5
293
330
28D
100
AcDbEntity
  8
A
  6
FIN
 62
     3
100
AcDbText
 10
-1.401515123270677
 20
4.441050980687142
 30
0.0
 40
1.629261306524276
  1

 41
0.9200000000000001
  7
ARIAL
 72
     2
 11
-1.401515123270677
 21
5.25568163394928
 31
0.0
100
AcDbAttributeDefinition
  3

  2
$LOCALISATION
 70
     0
 74
     2
  0
ATTDEF
  5
294
330
28D
100
AcDbEntity
  8
A
  6
FIN
 62
     3
100
AcDbText
 10
-1.401515123270677
 20
6.893702576937092
 30
0.0
 40
1.629261306524276
  1

 41
0.9200000000000001
  7
ARIAL
 72
     2
 11
-1.401515123270677
 21
7.70833323019923
 31
0.0
100
AcDbAttributeDefinition
  3

  2
$FONCTION
 70
     0
 74
     2
  0
LINE
  5
295
330
28D
100
AcDbEntity
  8
A
  6
MOYEN
 62
     4
100
AcDbLine
 10
0.0
 20
3.503787755966186
 30
0.0
 11
0.0
 21
1.05113636855826
 31
0.0
  0
LINE
  5
296
330
28D
100
AcDbEntity
  8
A
  6
MOYEN
 62
     4
100
AcDbLine
 10
0.0
 20
-1.05113636855826
 30
0.0
 11
0.0
 21
-3.503787755966186
 31
0.0
  0
CIRCLE
  5
297
330
28D
100
AcDbEntity
  8
A
  6
MOYEN
 62
     4
100
AcDbCircle
 10
0.0
 20
0.0
 30
0.0
 40
1.05113636855826
  0
LINE
  5
298
330
28D
100
AcDbEntity
  8
A
  6
MOYEN
 62
     4
100
AcDbLine
 10
-0.2700768034267895
 20
-1.015442864877208
 30
0.0
 11
0.2700759680586913
 21
-1.015442864877208
 31
0.0
  0
LINE
  5
299
330
28D
100
AcDbEntity
  8
A
  6
MOYEN
 62
     4
100
AcDbLine
 10
0.3775593353672306
 20
-0.9804049163112578
 30
0.0
 11
-0.3775601446300758
 21
-0.9804049163112578
 31
0.0
  0
LINE
  5
29A
330
28D
100
AcDbEntity
  8
A
  6
MOYEN
 62
     4
100
AcDbLine
 10
-0.4600779881120722
 20
-0.9453670721663199
 30
0.0
 11
0.4600772571649864
 21
-0.9453670721663199
 31
0.0
  0
LINE
  5
29B
330
28D
100
AcDbEntity
  8
A
  6
MOYEN
 62
     4
100
AcDbLine
 10
0.5259788199099269
 20
-0.9103292280213821
 30
0.0
 11
-0.5259794986465068
 21
-0.9103292280213821
 31
0.0
  0
LINE
  5
29C
330
28D
100
AcDbEntity
  8
A
  6
MOYEN
 62
     4
100
AcDbLine
 10
-0.5812765854892135
 20
-0.875291331665938
 30
0.0
 11
0.5812758545421275
 21
-0.875291331665938
 31
0.0
  0
LINE
  5
29D
330
28D
100
AcDbEntity
  8
A
  6
MOYEN
 62
     4
100
AcDbLine
 10
0.6305241454064117
 20
-0.840253435310494
 30
0.0
 11
-0.6305249285640038
 21
-0.840253435310494
 31
0.0
  0
LINE
  5
29E
330
28D
100
AcDbEntity
  8
A
  6
MOYEN
 62
     4
100
AcDbLine
 10
-0.674698828125969
 20
-0.805215591165556
 30
0.0
 11
0.674698097178883
 21
-0.805215591165556
 31
0.0
  0
LINE
  5
29F
330
28D
100
AcDbEntity
  8
A
  6
MOYEN
 62
     4
100
AcDbLine
 10
0.7149967763435683
 20
-0.7701776948101121
 30
0.0
 11
-0.7149975595011604
 21
-0.7701776948101121
 31
0.0
  0
LINE
  5
2A0
330
28D
100
AcDbEntity
  8
A
  6
MOYEN
 62
     4
100
AcDbLine
 10
-0.7506593714049857
 20
-0.735139798454668
 30
0.0
 11
0.7506585882473935
 21
-0.735139798454668
 31
0.0
  0
LINE
  5
2A1
330
28D
100
AcDbEntity
  8
A
  6
MOYEN
 62
     4
100
AcDbLine
 10
0.7832007701988069
 20
-0.7001019543097299
 30
0.0
 11
-0.7832016055669051
 21
-0.7001019543097299
 31
0.0
  0
LINE
  5
2A2
330
28D
100
AcDbEntity
  8
A
  6
MOYEN
 62
     4
100
AcDbLine
 10
-0.8138418632006256
 20
-0.665064057954286
 30
0.0
 11
0.8138410278325274
 21
-0.665064057954286
 31
0.0
  0
LINE
  5
2A3
330
28D
100
AcDbEntity
  8
A
  6
MOYEN
 62
     4
100
AcDbLine
 10
0.8406447530540184
 20
-0.6300261615988419
 30
0.0
 11
-0.8406455884221166
 21
-0.6300261615988419
 31
0.0
  0
LINE
  5
2A4
330
28D
100
AcDbEntity
  8
A
  6
MOYEN
 62
     4
100
AcDbLine
 10
-0.8659802666323273
 20
-0.5949883174539039
 30
0.0
 11
0.865979431264229
 21
-0.5949883174539039
 31
0.0
  0
LINE
  5
2A5
330
28D
100
AcDbEntity
  8
A
  6
MOYEN
 62
     4
100
AcDbLine
 10
0.8890571015044841
 20
-0.5599504210984599
 30
0.0
 11
-0.8890578324515701
 21
-0.5599504210984599
 31
0.0
  0
LINE
  5
2A6
330
28D
100
AcDbEntity
  8
A
  6
MOYEN
 62
     4
100
AcDbLine
 10
-0.9100109527759485
 20
-0.5249125769535219
 30
0.0
 11
0.9100101174078504
 21
-0.5249125769535219
 31
0.0
  0
LINE
  5
2A7
330
28D
100
AcDbEntity
  8
A
  6
MOYEN
 62
     4
100
AcDbLine
 10
0.9296932693808628
 20
-0.4898746805980779
 30
0.0
 11
-0.9296941047489612
 21
-0.4898746805980779
 31
0.0
  0
LINE
  5
2A8
330
28D
100
AcDbEntity
  8
A
  6
MOYEN
 62
     4
100
AcDbLine
 10
-0.9469325519824424
 20
-0.4548367842426337
 30
0.0
 11
0.9469318210353565
 21
-0.4548367842426337
 31
0.0
  0
LINE
  5
2A9
330
28D
100
AcDbEntity
  8
A
  6
MOYEN
 62
     4
100
AcDbLine
 10
0.9634798365356331
 20
-0.4197989400976958
 30
0.0
 11
-0.9634805674827191
 21
-0.4197989400976958
 31
0.0
  0
LINE
  5
2AA
330
28D
100
AcDbEntity
  8
A
  6
MOYEN
 62
     4
100
AcDbLine
 10
-0.9774918833316448
 20
-0.3847610437422517
 30
0.0
 11
0.9774911523845586
 21
-0.3847610437422517
 31
0.0
  0
LINE
  5
2AB
330
28D
100
AcDbEntity
  8
A
  6
MOYEN
 62
     4
100
AcDbLine
 10
0.9911067125969381
 20
-0.3497231734920607
 30
0.0
 11
-0.9911075479650364
 21
-0.3497231734920607
 31
0.0
  0
LINE
  5
2AC
330
28D
100
AcDbEntity
  8
A
  6
MOYEN
 62
     4
100
AcDbLine
 10
-1.002249061133432
 20
-0.3146853032418697
 30
0.0
 11
1.002248225765334
 21
-0.3146853032418697
 31
0.0
  0
LINE
  5
2AD
330
28D
100
AcDbEntity
  8
A
  6
MOYEN
 62
     4
100
AcDbLine
 10
1.013088275471276
 20
-0.2796474068864256
 30
0.0
 11
-1.013089006418362
 21
-0.2796474068864256
 31
0.0
  0
LINE
  5
2AE
330
28D
100
AcDbEntity
  8
A
  6
MOYEN
 62
     4
100
AcDbLine
 10
-1.021621769436932
 20
-0.2446095366362346
 30
0.0
 11
1.021620934068834
 21
-0.2446095366362346
 31
0.0
  0
LINE
  5
2AF
330
28D
100
AcDbEntity
  8
A
  6
MOYEN
 62
     4
100
AcDbLine
 10
1.029804095538288
 20
-0.2095716663860436
 30
0.0
 11
-1.029805035327399
 21
-0.2095716663860436
 31
0.0
  0
LINE
  5
2B0
330
28D
100
AcDbEntity
  8
A
  6
MOYEN
 62
     4
100
AcDbLine
 10
-1.035915335282055
 20
-0.1745337961358526
 30
0.0
 11
1.035914395492945
 21
-0.1745337961358526
 31
0.0
  0
LINE
  5
2B1
330
28D
100
AcDbEntity
  8
A
  6
MOYEN
 62
     4
100
AcDbLine
 10
1.041527233745093
 20
-0.1394959128330351
 30
0.0
 11
-1.041528173534204
 21
-0.1394959128330351
 31
0.0
  0
LINE
  5
2B2
330
28D
100
AcDbEntity
  8
A
  6
MOYEN
 62
     4
100
AcDbLine
 10
-1.045342673112841
 20
-0.1044580360565308
 30
0.0
 11
1.045341837744742
 21
-0.1044580360565308
 31
0.0
  0
LINE
  5
2B3
330
28D
100
AcDbEntity
  8
A
  6
MOYEN
 62
     4
100
AcDbLine
 10
1.048441888757353
 20
-0.0694201592800265
 30
0.0
 11
-1.048442724125451
 21
-0.0694201592800265
 31
0.0
  0
LINE
  5
2B4
330
28D
100
AcDbEntity
  8
A
  6
MOYEN
 62
     4
100
AcDbLine
 10
-1.050037963930072
 20
-0.0343822825035223
 30
0.0
 11
1.050037024140962
 21
-0.0343822825035223
 31
0.0
  0
LINE
  5
2B5
330
28D
100
AcDbEntity
  8
A
  6
MOYEN
 62
     4
100
AcDbLine
 10
1.050655405375692
 20
0.000655594272982
 30
0.0
 11
-1.050656449585815
 21
0.000655594272982
 31
0.0
  0
LINE
  5
2B6
330
28D
100
AcDbEntity
  8
A
  6
MOYEN
 62
     4
100
AcDbLine
 10
-1.050063755920107
 20
0.0356934710494863
 30
0.0
 11
1.050062711709983
 21
0.0356934710494863
 31
0.0
  0
LINE
  5
2B7
330
28D
100
AcDbEntity
  8
A
  6
MOYEN
 62
     4
100
AcDbLine
 10
1.048205792848583
 20
0.0707313478259906
 30
0.0
 11
-1.048206837058706
 21
0.0707313478259906
 31
0.0
  0
LINE
  5
2B8
330
28D
100
AcDbEntity
  8
A
  6
MOYEN
 62
     4
100
AcDbLine
 10
-1.045415350137389
 20
0.1057692246024948
 30
0.0
 11
1.045414201506253
 21
0.1057692246024948
 31
0.0
  0
LINE
  5
2B9
330
28D
100
AcDbEntity
  8
A
  6
MOYEN
 62
     4
100
AcDbLine
 10
1.041063291187527
 20
0.1408071013789991
 30
0.0
 11
-1.041064439818661
 21
0.1408071013789991
 31
0.0
  0
LINE
  5
2BA
330
28D
100
AcDbEntity
  8
A
  6
MOYEN
 62
     4
100
AcDbLine
 10
-1.036019547452311
 20
0.1758449846818166
 30
0.0
 11
1.036018398821177
 21
0.1758449846818166
 31
0.0
  0
LINE
  5
2BB
330
28D
100
AcDbEntity
  8
A
  6
MOYEN
 62
     4
100
AcDbLine
 10
1.029129326956927
 20
0.2108828549320077
 30
0.0
 11
-1.029130475588061
 21
0.2108828549320077
 31
0.0
  0
LINE
  5
2BC
330
28D
100
AcDbEntity
  8
A
  6
MOYEN
 62
     4
100
AcDbLine
 10
-1.021730576131731
 20
0.2459207251821987
 30
0.0
 11
1.021729427500595
 21
0.2459207251821987
 31
0.0
  0
LINE
  5
2BD
330
28D
100
AcDbEntity
  8
A
  6
MOYEN
 62
     4
100
AcDbLine
 10
1.012230456855383
 20
0.2809586215376427
 30
0.0
 11
-1.012231709907531
 21
0.2809586215376427
 31
0.0
  0
LINE
  5
2BE
330
28D
100
AcDbEntity
  8
A
  6
MOYEN
 62
     4
100
AcDbLine
 10
-1.002320589526845
 20
0.3159964917878337
 30
0.0
 11
1.002319336474699
 21
0.3159964917878337
 31
0.0
  0
LINE
  5
2BF
330
28D
100
AcDbEntity
  8
A
  6
MOYEN
 62
     4
100
AcDbLine
 10
0.9901086565615527
 20
0.3510343620380247
 30
0.0
 11
-0.9901099096137004
 21
0.3510343620380247
 31
0.0
  0
LINE
  5
2C0
330
28D
100
AcDbEntity
  8
A
  6
MOYEN
 62
     4
100
AcDbLine
 10
-0.9774649427104762
 20
0.3860722322882157
 30
0.0
 11
0.9774635852373165
 21
0.3860722322882157
 31
0.0
  0
LINE
  5
2C1
330
28D
100
AcDbEntity
  8
A
  6
MOYEN
 62
     4
100
AcDbLine
 10
0.9624039868460984
 20
0.4211101025384069
 30
0.0
 11
-0.9624054487402702
 21
0.4211101025384069
 31
0.0
  0
LINE
  5
2C2
330
28D
100
AcDbEntity
  8
A
  6
MOYEN
 62
     4
100
AcDbLine
 10
-0.9467191154333391
 20
0.4561479988938509
 30
0.0
 11
0.946717653539167
 21
0.4561479988938509
 31
0.0
  0
LINE
  5
2C3
330
28D
100
AcDbEntity
  8
A
  6
MOYEN
 62
     4
100
AcDbLine
 10
0.9286306811598874
 20
0.4911858952492949
 30
0.0
 11
-0.9286321430540596
 21
0.4911858952492949
 31
0.0
  0
LINE
  5
2C4
330
28D
100
AcDbEntity
  8
A
  6
MOYEN
 62
     4
100
AcDbLine
 10
-0.909485192979112
 20
0.5262237393942329
 30
0.0
 11
0.9094836266639275
 21
0.5262237393942329
 31
0.0
  0
LINE
  5
2C5
330
28D
100
AcDbEntity
  8
A
  6
MOYEN
 62
     4
100
AcDbLine
 10
0.8881398673326046
 20
0.561261635749677
 30
0.0
 11
-0.8881413292267765
 21
0.561261635749677
 31
0.0
  0
LINE
  5
2C6
330
28D
100
AcDbEntity
  8
A
  6
MOYEN
 62
     4
100
AcDbLine
 10
-0.8649619007100532
 20
0.5962994798946149
 30
0.0
 11
0.8649602821843629
 21
0.5962994798946149
 31
0.0
  0
LINE
  5
2C7
330
28D
100
AcDbEntity
  8
A
  6
MOYEN
 62
     4
100
AcDbLine
 10
0.8400663650669921
 20
0.631337376250059
 30
0.0
 11
-0.8400679835926823
 21
0.631337376250059
 31
0.0
  0
LINE
  5
2C8
330
28D
100
AcDbEntity
  8
A
  6
MOYEN
 62
     4
100
AcDbLine
 10
-0.8120693165171495
 20
0.6663752726055029
 30
0.0
 11
0.8120674891494346
 21
0.6663752726055029
 31
0.0
  0
LINE
  5
2C9
330
28D
100
AcDbEntity
  8
A
  6
MOYEN
 62
     4
100
AcDbLine
 10
0.7825617136036449
 20
0.701413116750441
 30
0.0
 11
-0.7825637498133844
 21
0.701413116750441
 31
0.0
  0
LINE
  5
2CA
330
28D
100
AcDbEntity
  8
A
  6
MOYEN
 62
     4
100
AcDbLine
 10
-0.7493336944435676
 20
0.736451013105885
 30
0.0
 11
0.749331606023322
 21
0.736451013105885
 31
0.0
  0
LINE
  5
2CB
330
28D
100
AcDbEntity
  8
A
  6
MOYEN
 62
     4
100
AcDbLine
 10
0.7129779527026266
 20
0.771488857250823
 30
0.0
 11
-0.7129802499648968
 21
0.771488857250823
 31
0.0
  0
LINE
  5
2CC
330
28D
100
AcDbEntity
  8
A
  6
MOYEN
 62
     4
100
AcDbLine
 10
-0.6735903990806023
 20
0.8065267536062671
 30
0.0
 11
0.6735877885552953
 21
0.8065267536062671
 31
0.0
  0
LINE
  5
2CD
330
28D
100
AcDbEntity
  8
A
  6
MOYEN
 62
     4
100
AcDbLine
 10
0.6294237045684845
 20
0.841564649961711
 30
0.0
 11
-0.6294263150937916
 21
0.841564649961711
 31
0.0
  0
LINE
  5
2CE
330
28D
100
AcDbEntity
  8
A
  6
MOYEN
 62
     4
100
AcDbLine
 10
-0.5791126166412007
 20
0.876602494106649
 30
0.0
 11
0.5791096928528568
 21
0.876602494106649
 31
0.0
  0
LINE
  5
2CF
330
28D
100
AcDbEntity
  8
A
  6
MOYEN
 62
     4
100
AcDbLine
 10
0.5220324365927774
 20
0.9116403382515869
 30
0.0
 11
-0.522035673644158
 21
0.9116403382515869
 31
0.0
  0
LINE
  5
2D0
330
28D
100
AcDbEntity
  8
A
  6
MOYEN
 62
     4
100
AcDbLine
 10
-0.455447751585492
 20
0.9466782868175371
 30
0.0
 11
0.4554439402185437
 21
0.9466782868175371
 31
0.0
  0
LINE
  5
2D1
330
28D
100
AcDbEntity
  8
A
  6
MOYEN
 62
     4
100
AcDbLine
 10
0.3746494350179859
 20
0.9817161309624752
 30
0.0
 11
-0.3746541600687916
 21
0.9817161309624752
 31
0.0
  0
LINE
  5
2D2
330
28D
100
AcDbEntity
  8
A
  6
MOYEN
 62
     4
100
AcDbLine
 10
-0.2641558448726524
 20
1.016753975107412
 30
0.0
 11
0.2641483787702743
 21
1.016753975107412
 31
0.0
  0
ENDBLK
  5
2D4
330
28D
100
AcDbEntity
  8
0
100
AcDbBlockEnd
  0
BLOCK
  5
2ED
330
2E1
100
AcDbEntity
  8
0
100
AcDbBlockBegin
  2
S01C0N_S01_0_3_1
 70
     2
 10
0.0
 20
0.0
 30
0.0
  3
S01C0N_S01_0_3_1
  1

  0
ATTDEF
  5
2E2
330
2E1
100
AcDbEntity
  8
A
  6
FIN
 62
     3
100
AcDbText
 10
-7.007575511932372
 20
-4.200791374154674
 30
0.0
 40
2.094764536959783
  1

 41
0.9200000000000001
  7
ARIAL
 72
     2
 11
-7.007575511932372
 21
-3.153409105674783
 31
0.0
100
AcDbAttributeDefinition
  3

  2
$NOMCOMP
 70
     0
 74
     2
  0
ATTDEF
  5
2E3
330
2E1
100
AcDbEntity
  8
A
  6
FIN
 62
     1
100
AcDbText
 10
0.7007575616353386
 20
0.1195041895338467
 30
0.0
 40
1.512885498915399
  1

 41
0.9200000000000001
  7
ARIAL
 11
0.7007575616353386
 21
0.8759469389915466
 31
0.0
100
AcDbAttributeDefinition
  3

  2
$PL:1
 70
     0
 74
     2
  0
ATTDEF
  5
2E4
330
2E1
100
AcDbEntity
  8
A
  6
FIN
 62
     1
100
AcDbText
 10
0.7007575616353386
 20
-8.289586758932239
 30
0.0
 40
1.512885498915399
  1

 41
0.9200000000000001
  7
ARIAL
 11
0.7007575616353386
 21
-7.533144009474539
 31
0.0
100
AcDbAttributeDefinition
  3

  2
$PL:2
 70
     0
 74
     2
  0
ATTDEF
  5
2E5
330
2E1
100
AcDbEntity
  8
A
  6
FIN
 62
     3
100
AcDbText
 10
-7.007575511932372
 20
-0.9310064608710154
 30
0.0
 40
1.86201292174203
  1

 41
0.9200000000000001
  7
ARIAL
 72
     2
 11
-7.007575511932372
 21
0.0
 31
0.0
100
AcDbAttributeDefinition
  3

  2
$LOCALISATION
 70
     0
 74
     2
  0
ATTDEF
  5
2E6
330
2E1
100
AcDbEntity
  8
A
  6
FIN
 62
     4
100
AcDbText
 10
1.226325693703962
 20
-5.603557620469112
 30
0.0
 40
1.396509691306523
  1

 41
0.69
  7
ARIAL
 11
1.226325693703962
 21
-4.905302774815851
 31
0.0
100
AcDbAttributeDefinition
  3

  2
POSITION ACTIONNE
 70
     0
 74
     2
  0
ATTDEF
  5
2E7
330
2E1
100
AcDbEntity
  8
A
  6
FIN
 62
     3
100
AcDbText
 10
-7.007575511932372
 20
1.696834356103624
 30
0.0
 40
1.86201292174203
  1

 41
0.9200000000000001
  7
ARIAL
 72
     2
 11
-7.007575511932372
 21
2.62784081697464
 31
0.0
100
AcDbAttributeDefinition
  3

  2
$FONCTION
 70
     0
 74
     2
  0
ATTDEF
  5
2E8
330
2E1
100
AcDbEntity
  8
A
  6
FIN
 62
     1
100
AcDbText
 10
-7.007575511932372
 20
-7.121432574933786
 30
0.0
 40
1.629261306524276
  1

 41
0.9200000000000001
  7
ARIAL
 72
     2
 11
-7.007575511932372
 21
-6.306801921671648
 31
0.0
100
AcDbAttributeDefinition
  3

  2
$POS_REFCRO_1
 70
     0
 74
     2
  0
LINE
  5
2E9
330
2E1
100
AcDbEntity
  8
A
  6
SYMBOL_C
 62
     4
100
AcDbLine
 10
0.0
 20
-6.131628572940826
 30
0.0
 11
-2.62784081697464
 21
-0.8759469389915466
 31
0.0
  0
LINE
  5
2EA
330
2E1
100
AcDbEntity
  8
A
  6
MOYEN
 62
     4
100
AcDbLine
 10
0.0
 20
0.0
 30
0.0
 11
0.0
 21
-0.8759469389915466
 31
0.0
  0
LINE
  5
2EB
330
2E1
100
AcDbEntity
  8
A
  6
MOYEN
 62
     4
100
AcDbLine
 10
0.0
 20
-7.007575511932372
 30
0.0
 11
0.0
 21
-6.131628572940826
 31
0.0
  0
LINE
  5
2EC
330
2E1
100
AcDbEntity
  8
A
  6
POINT
 62
     3
100
AcDbLine
 10
-3.503787755966186
 20
-3.503787755966186
 30
0.0
 11
-1.401515123270677
 21
-3.503787755966186
 31
0.0
  0
ENDBLK
  5
2EE
330
2E1
100
AcDbEntity
  8
0
100
AcDbBlockEnd
  0
BLOCK
  5
30D
330
2F3
100
AcDbEntity
  8
0
100
AcDbBlockBegin
  2
S07C0N_S01_0_3_1
 70
     2
 10
0.0
 20
0.0
 30
0.0
  3
S07C0N_S01_0_3_1
  1

  0
ATTDEF
  5
2F4
330
2F3
100
AcDbEntity
  8
A
  6
FIN
 62
     3
100
AcDbText
 10
-8.759469389915466
 20
-0.6970034876622227
 30
0.0
 40
2.094764536959783
  1

 41
0.9200000000000001
  7
ARIAL
 72
     2
 11
-8.759469389915466
 21
0.3503787808176693
 31
0.0
100
AcDbAttributeDefinition
  3

  2
$NOMCOMP
 70
     0
 74
     2
  0
ATTDEF
  5
2F5
330
2F3
100
AcDbEntity
  8
A
  6
FIN
 62
     4
100
AcDbText
 10
-5.25568163394928
 20
-3.442471470236778
 30
0.0
 40
1.629261306524276
  1

 41
0.9200000000000001
  7
ARIAL
 72
     2
 11
-5.25568163394928
 21
-2.62784081697464
 31
0.0
100
AcDbAttributeDefinition
  3

  2
TEXTE0_ETIQUETTE
 70
     0
 74
     2
  0
ATTDEF
  5
2F6
330
2F3
100
AcDbEntity
  8
A
  6
FIN
 62
     4
100
AcDbText
 10
-5.25568163394928
 20
-6.070312287211418
 30
0.0
 40
1.629261306524276
  1

 41
0.9200000000000001
  7
ARIAL
 72
     2
 11
-5.25568163394928
 21
-5.25568163394928
 31
0.0
100
AcDbAttributeDefinition
  3

  2
TEXTE1_ETIQUETTE
 70
     0
 74
     2
  0
ATTDEF
  5
2F7
330
2F3
100
AcDbEntity
  8
A
  6
FIN
 62
     4
100
AcDbText
 10
-6.131628572940826
 20
2.102272737116521
 30
0.0
 40
0.9310064608710153
  1

 41
0.69
  7
ARIAL
 72
     4
 11
-6.131628572940826
 21
2.102272737116521
 31
0.0
100
AcDbAttributeDefinition
  3

  2
POS_0
 70
     0
 74
     2
  0
ATTDEF
  5
2F8
330
2F3
100
AcDbEntity
  8
A
  6
FIN
 62
     4
100
AcDbText
 10
-4.554924333366471
 20
2.102272737116521
 30
0.0
 40
0.9310064608710153
  1

 41
0.69
  7
ARIAL
 72
     4
 11
-4.554924333366471
 21
2.102272737116521
 31
0.0
100
AcDbAttributeDefinition
  3

  2
POS_1
 70
     0
 74
     2
  0
ATTDEF
  5
2F9
330
2F3
100
AcDbEntity
  8
A
  6
FIN
 62
     3
100
AcDbText
 10
-8.759469389915466
 20
2.572781295095171
 30
0.0
 40
1.86201292174203
  1

 41
0.9200000000000001
  7
ARIAL
 72
     2
 11
-8.759469389915466
 21
3.503787755966186
 31
0.0
100
AcDbAttributeDefinition
  3

  2
$LOCALISATION
 70
     0
 74
     2
  0
ATTDEF
  5
2FA
330
2F3
100
AcDbEntity
  8
A
  6
FIN
 62
     3
100
AcDbText
 10
-8.759469389915466
 20
5.200622112069811
 30
0.0
 40
1.86201292174203
  1

 41
0.9200000000000001
  7
ARIAL
 72
     2
 11
-8.759469389915466
 21
6.131628572940826
 31
0.0
100
AcDbAttributeDefinition
  3

  2
$FONCTION
 70
     0
 74
     2
  0
ATTDEF
  5
2FB
330
2F3
100
AcDbEntity
  8
A
  6
FIN
 62
     1
100
AcDbText
 10
-9.810589677637835
 20
-8.873343160278844
 30
0.0
 40
1.629261306524276
  1

 41
0.9200000000000001
  7
ARIAL
 72
     2
 11
-9.810589677637835
 21
-8.058712507016705
 31
0.0
100
AcDbAttributeDefinition
  3

  2
$POS_REFCRO_1
 70
     0
 74
     2
  0
ATTDEF
  5
2FC
330
2F3
100
AcDbEntity
  8
A
  6
FIN
 62
     4
100
AcDbText
 10
-11.21211012638014
 20
-10.51136326789856
 30
0.0
 40
1.629261306524276
  1

 41
0.9200000000000001
  7
ARIAL
 72
     4
 11
-11.21211012638014
 21
-10.51136326789856
 31
0.0
100
AcDbAttributeDefinition
  3

  2
$INTER_CROREF_1
 70
     0
 74
     2
  0
LINE
  5
2FD
330
2F3
100
AcDbEntity
  8
A
  6
POINT
 62
     3
100
AcDbLine
 10
-4.309773034413268
 20
-0.0075926606450025
 30
0.0
 11
-5.010530752680125
 21
-0.0075926606450025
 31
0.0
  0
LINE
  5
2FE
330
2F3
100
AcDbEntity
  8
A
  6
MOYEN
 62
     4
100
AcDbLine
 10
-4.660152311230746
 20
0.8683542783465441
 30
0.0
 11
-5.360909611813553
 21
-1.058728820361239
 31
0.0
  0
LINE
  5
2FF
330
2F3
100
AcDbEntity
  8
A
  6
MOYEN
 62
     4
100
AcDbLine
 10
-5.360909611813553
 20
-1.058728820361239
 30
0.0
 11
-6.061666912396361
 21
0.8683542783465441
 31
0.0
  0
LINE
  5
300
330
2F3
100
AcDbEntity
  8
A
  6
POINT
 62
     3
100
AcDbLine
 10
-5.751555301702922
 20
-0.0002498612546003
 30
0.0
 11
-7.289659269877348
 21
-0.0002498612546003
 31
0.0
  0
LWPOLYLINE
  5
301
330
2F3
100
AcDbEntity
  8
A
  6
MOYEN
 62
     4
100
AcDbPolyline
 90
        4
 70
     0
 43
0.0
 10
-7.988750428788193
 20
-1.058728820361239
 10
-7.287993545889435
 20
-1.058728820361239
 10
-7.287993545889435
 20
1.043543499071234
 10
-6.587236245306627
 20
1.043543499071234
  0
LWPOLYLINE
  5
307
330
2F3
100
AcDbEntity
  8
A
  6
MOYEN
 62
     4
100
AcDbPolyline
 90
        3
 70
     0
 43
0.0
 10
-4.309773034413268
 20
-0.0075926606450025
 10
-3.784204954555149
 20
-0.8835395996365491
 10
-3.258636874697031
 20
-0.0075926606450025
  0
LINE
  5
30C
330
2F3
100
AcDbEntity
  8
A
  6
POINT
 62
     3
100
AcDbLine
 10
-3.258636874697031
 20
-0.0075926606450025
 30
0.0
 11
-1.331553880410261
 21
-0.0075926606450025
 31
0.0
  0
ENDBLK
  5
30E
330
2F3
100
AcDbEntity
  8
0
100
AcDbBlockEnd
  0
BLOCK
  5
327
330
31A
100
AcDbEntity
  8
0
100
AcDbBlockBegin
  2
S02C0N_S01_0_3_1
 70
     2
 10
0.0
 20
0.0
 30
0.0
  3
S02C0N_S01_0_3_1
  1

  0
ATTDEF
  5
31B
330
31A
100
AcDbEntity
  8
A
  6
FIN
 62
     3
100
AcDbText
 10
-7.007575511932372
 20
-4.200791374154674
 30
0.0
 40
2.094764536959783
  1

 41
0.9200000000000001
  7
ARIAL
 72
     2
 11
-7.007575511932372
 21
-3.153409105674783
 31
0.0
100
AcDbAttributeDefinition
  3

  2
$NOMCOMP
 70
     0
 74
     2
  0
ATTDEF
  5
31C
330
31A
100
AcDbEntity
  8
A
  6
FIN
 62
     1
100
AcDbText
 10
0.7007575616353386
 20
0.1195041895338467
 30
0.0
 40
1.512885498915399
  1

 41
0.9200000000000001
  7
ARIAL
 11
0.7007575616353386
 21
0.8759469389915466
 31
0.0
100
AcDbAttributeDefinition
  3

  2
$PL:1
 70
     0
 74
     2
  0
ATTDEF
  5
31D
330
31A
100
AcDbEntity
  8
A
  6
FIN
 62
     1
100
AcDbText
 10
0.7007575616353386
 20
-8.289586758932239
 30
0.0
 40
1.512885498915399
  1

 41
0.9200000000000001
  7
ARIAL
 11
0.7007575616353386
 21
-7.533144009474539
 31
0.0
100
AcDbAttributeDefinition
  3

  2
$PL:2
 70
     0
 74
     2
  0
ATTDEF
  5
31E
330
31A
100
AcDbEntity
  8
A
  6
FIN
 62
     4
100
AcDbText
 10
1.226325693703962
 20
-5.603557620469112
 30
0.0
 40
1.396509691306523
  1

 41
0.69
  7
ARIAL
 11
1.226325693703962
 21
-4.905302774815851
 31
0.0
100
AcDbAttributeDefinition
  3

  2
POSITION ACTIONNE
 70
     0
 74
     2
  0
ATTDEF
  5
31F
330
31A
100
AcDbEntity
  8
A
  6
FIN
 62
     3
100
AcDbText
 10
-7.007575511932372
 20
-0.9310064608710154
 30
0.0
 40
1.86201292174203
  1

 41
0.9200000000000001
  7
ARIAL
 72
     2
 11
-7.007575511932372
 21
0.0
 31
0.0
100
AcDbAttributeDefinition
  3

  2
$LOCALISATION
 70
     0
 74
     2
  0
ATTDEF
  5
320
330
31A
100
AcDbEntity
  8
A
  6
FIN
 62
     3
100
AcDbText
 10
-7.007575511932372
 20
1.696834356103624
 30
0.0
 40
1.86201292174203
  1

 41
0.9200000000000001
  7
ARIAL
 72
     2
 11
-7.007575511932372
 21
2.62784081697464
 31
0.0
100
AcDbAttributeDefinition
  3

  2
$FONCTION
 70
     0
 74
     2
  0
ATTDEF
  5
321
330
31A
100
AcDbEntity
  8
A
  6
FIN
 62
     1
100
AcDbText
 10
-7.007575511932372
 20
-7.121432574933786
 30
0.0
 40
1.629261306524276
  1

 41
0.9200000000000001
  7
ARIAL
 72
     2
 11
-7.007575511932372
 21
-6.306801921671648
 31
0.0
100
AcDbAttributeDefinition
  3

  2
$POS_REFCRO_1
 70
     0
 74
     2
  0
LINE
  5
322
330
31A
100
AcDbEntity
  8
A
  6
SYMBOL_C
 62
     4
100
AcDbLine
 10
0.0
 20
-6.131628572940826
 30
0.0
 11
2.62784081697464
 21
-0.8759469389915466
 31
0.0
  0
LINE
  5
323
330
31A
100
AcDbEntity
  8
A
  6
MOYEN
 62
     4
100
AcDbLine
 10
0.0
 20
0.0
 30
0.0
 11
0.0
 21
-1.751893877983093
 31
0.0
  0
LINE
  5
324
330
31A
100
AcDbEntity
  8
A
  6
MOYEN
 62
     4
100
AcDbLine
 10
0.0
 20
-7.007575511932372
 30
0.0
 11
0.0
 21
-6.131628572940826
 31
0.0
  0
LINE
  5
325
330
31A
100
AcDbEntity
  8
A
  6
SYMBOL_C
 62
     4
100
AcDbLine
 10
0.0
 20
-1.751893877983093
 30
0.0
 11
3.153409105674783
 21
-1.751893877983093
 31
0.0
  0
LINE
  5
326
330
31A
100
AcDbEntity
  8
A
  6
POINT
 62
     3
100
AcDbLine
 10
1.226325693703962
 20
-3.503787755966186
 30
0.0
 11
-1.314874607697547
 21
-3.513343949326127
 31
0.0
  0
ENDBLK
  5
328
330
31A
100
AcDbEntity
  8
0
100
AcDbBlockEnd
  0
BLOCK
  5
341
330
335
100
AcDbEntity
  8
0
100
AcDbBlockBegin
  2
012C0_001_0_3_1
 70
     2
 10
0.0
 20
0.0
 30
0.0
  3
012C0_001_0_3_1
  1

  0
ATTDEF
  5
336
330
335
100
AcDbEntity
  8
A
  6
FIN
 62
     3
100
AcDbText
 10
3.153409105674783
 20
-0.3478760648355923
 30
0.0
 40
1.396509691306523
  1

 41
0.9200000000000001
  7
ARIAL
 11
3.153409105674783
 21
0.3503787808176693
 31
0.0
100
AcDbAttributeDefinition
  3

  2
$REPERE
 70
     0
 74
     2
  0
ATTDEF
  5
337
330
335
100
AcDbEntity
  8
A
  6
FIN
 62
     1
100
AcDbText
 10
-1.751893877983093
 20
1.287642083854383
 30
0.0
 40
1.629261306524276
  1

 41
0.9200000000000001
  7
ARIAL
 72
     2
 11
-1.751893877983093
 21
2.102272737116521
 31
0.0
100
AcDbAttributeDefinition
  3

  2
$NUM_EQUI
 70
     0
 74
     2
  0
ATTDEF
  5
338
330
335
100
AcDbEntity
  8
A
  6
FIN
 62
     1
100
AcDbText
 10
3.854166197415566
 20
-0.4642304922422045
 30
0.0
 40
1.629261306524276
  1

 41
0.9200000000000001
  7
ARIAL
 11
3.854166197415566
 21
0.3504001610199339
 31
0.0
100
AcDbAttributeDefinition
  3

  2
$POS_REFCRO_1
 70
     0
 74
     2
  0
LWPOLYLINE
  5
339
330
335
100
AcDbEntity
  8
A
  6
MOYEN
 62
     4
100
AcDbPolyline
 90
        5
 70
     0
 43
0.0
 10
2.102272319432473
 20
0.0
 10
0.0
 20
0.8409090948466086
 10
0.4204541297392553
 20
0.0
 10
0.0
 20
-0.8409090948466086
 10
2.102272319432473
 20
0.0
  0
LINE
  5
340
330
335
100
AcDbEntity
  8
A
  6
MOYEN
 62
     4
100
AcDbLine
 10
0.0
 20
0.0
 30
0.0
 11
0.4204541297392553
 21
0.0
 31
0.0
  0
ENDBLK
  5
342
330
335
100
AcDbEntity
  8
0
100
AcDbBlockEnd
  0
BLOCK
  5
355
330
34B
100
AcDbEntity
  8
0
100
AcDbBlockBegin
  2
B41C0N_B03_0_3_1
 70
     2
 10
0.0
 20
0.0
 30
0.0
  3
B41C0N_B03_0_3_1
  1

  0
ATTDEF
  5
34C
330
34B
100
AcDbEntity
  8
A
  6
FIN
 62
     3
100
AcDbText
 10
-3.503787755966186
 20
-4.200791374154674
 30
0.0
 40
2.094764536959783
  1

 41
0.9200000000000001
  7
ARIAL
 72
     2
 11
-3.503787755966186
 21
-3.153409105674783
 31
0.0
100
AcDbAttributeDefinition
  3

  2
$NOMCOMP
 70
     0
 74
     2
  0
ATTDEF
  5
34D
330
34B
100
AcDbEntity
  8
A
  6
FIN
 62
     1
100
AcDbText
 10
0.8759469389915466
 20
0.2946936191005609
 30
0.0
 40
1.512885498915399
  1

 41
0.9200000000000001
  7
ARIAL
 11
0.8759469389915466
 21
1.05113636855826
 31
0.0
100
AcDbAttributeDefinition
  3

  2
$PL:1
 70
     0
 74
     2
  0
ATTDEF
  5
34E
330
34B
100
AcDbEntity
  8
A
  6
FIN
 62
     1
100
AcDbText
 10
0.8759469389915466
 20
-8.289586758932239
 30
0.0
 40
1.512885498915399
  1

 41
0.9200000000000001
  7
ARIAL
 11
0.8759469389915466
 21
-7.533144009474539
 31
0.0
100
AcDbAttributeDefinition
  3

  2
$PL:2
 70
     0
 74
     2
  0
ATTDEF
  5
34F
330
34B
100
AcDbEntity
  8
A
  6
FIN
 62
     3
100
AcDbText
 10
-3.503787755966186
 20
-0.9310064608710154
 30
0.0
 40
1.86201292174203
  1

 41
0.9200000000000001
  7
ARIAL
 72
     2
 11
-3.503787755966186
 21
0.0
 31
0.0
100
AcDbAttributeDefinition
  3

  2
$LOCALISATION
 70
     0
 74
     2
  0
ATTDEF
  5
350
330
34B
100
AcDbEntity
  8
A
  6
FIN
 62
     3
100
AcDbText
 10
-3.503787755966186
 20
1.52164492653691
 30
0.0
 40
1.86201292174203
  1

 41
0.9200000000000001
  7
ARIAL
 72
     2
 11
-3.503787755966186
 21
2.452651387407925
 31
0.0
100
AcDbAttributeDefinition
  3

  2
$FONCTION
 70
     0
 74
     2
  0
LINE
  5
351
330
34B
100
AcDbEntity
  8
A
  6
POINT
 62
     3
100
AcDbLine
 10
-1.401515123270677
 20
-3.503787755966186
 30
0.0
 11
-1.751893877983093
 21
-3.503787755966186
 31
0.0
  0
LINE
  5
352
330
34B
100
AcDbEntity
  8
A
  6
SYMBOL_C
 62
     4
100
AcDbLine
 10
0.0
 20
-6.131628572940826
 30
0.0
 11
-2.62784081697464
 21
-0.8759469389915466
 31
0.0
  0
LINE
  5
353
330
34B
100
AcDbEntity
  8
A
  6
MOYEN
 62
     4
100
AcDbLine
 10
0.0
 20
0.0
 30
0.0
 11
0.0
 21
-0.8759469389915466
 31
0.0
  0
LINE
  5
354
330
34B
100
AcDbEntity
  8
A
  6
MOYEN
 62
     4
100
AcDbLine
 10
0.0
 20
-7.007575511932372
 30
0.0
 11
0.0
 21
-6.131628572940826
 31
0.0
  0
ENDBLK
  5
356
330
34B
100
AcDbEntity
  8
0
100
AcDbBlockEnd
  0
BLOCK
  5
371
330
35C
100
AcDbEntity
  8
0
100
AcDbBlockBegin
  2
B53C0N_B03_0_3_1
 70
     2
 10
0.0
 20
0.0
 30
0.0
  3
B53C0N_B03_0_3_1
  1

  0
ATTDEF
  5
35D
330
35C
100
AcDbEntity
  8
A
  6
FIN
 62
     3
100
AcDbText
 10
-8.759469389915466
 20
-0.6970034876622227
 30
0.0
 40
2.094764536959783
  1

 41
0.9200000000000001
  7
ARIAL
 72
     2
 11
-8.759469389915466
 21
0.3503787808176693
 31
0.0
100
AcDbAttributeDefinition
  3

  2
$NOMCOMP
 70
     0
 74
     2
  0
ATTDEF
  5
35E
330
35C
100
AcDbEntity
  8
A
  6
FIN
 62
     4
100
AcDbText
 10
-8.759469389915466
 20
-3.442471470236778
 30
0.0
 40
1.629261306524276
  1

 41
0.9200000000000001
  7
ARIAL
 72
     2
 11
-8.759469389915466
 21
-2.62784081697464
 31
0.0
100
AcDbAttributeDefinition
  3

  2
CONSIGNE
 70
     0
 74
     2
  0
ATTDEF
  5
35F
330
35C
100
AcDbEntity
  8
A
  6
FIN
 62
     3
100
AcDbText
 10
-8.759469389915466
 20
2.572781295095171
 30
0.0
 40
1.86201292174203
  1

 41
0.9200000000000001
  7
ARIAL
 72
     2
 11
-8.759469389915466
 21
3.503787755966186
 31
0.0
100
AcDbAttributeDefinition
  3

  2
$LOCALISATION
 70
     0
 74
     2
  0
ATTDEF
  5
360
330
35C
100
AcDbEntity
  8
A
  6
FIN
 62
     3
100
AcDbText
 10
-8.759469389915466
 20
5.200622112069811
 30
0.0
 40
1.86201292174203
  1

 41
0.9200000000000001
  7
ARIAL
 72
     2
 11
-8.759469389915466
 21
6.131628572940826
 31
0.0
100
AcDbAttributeDefinition
  3

  2
$FONCTION
 70
     0
 74
     2
  0
ATTDEF
  5
361
330
35C
100
AcDbEntity
  8
A
  6
FIN
 62
     1
100
AcDbText
 10
-9.810603043527407
 20
-6.070312287211418
 30
0.0
 40
1.629261306524276
  1

 41
0.9200000000000001
  7
ARIAL
 72
     2
 11
-9.810603043527407
 21
-5.25568163394928
 31
0.0
100
AcDbAttributeDefinition
  3

  2
$POS_REFCRO_1
 70
     0
 74
     2
  0
ATTDEF
  5
362
330
35C
100
AcDbEntity
  8
A
  6
FIN
 62
     4
100
AcDbText
 10
-10.51136326789856
 20
-7.883522450923919
 30
0.0
 40
1.629261306524276
  1

 41
0.9200000000000001
  7
ARIAL
 72
     4
 11
-10.51136326789856
 21
-7.883522450923919
 31
0.0
100
AcDbAttributeDefinition
  3

  2
$INTER_CROREF_1
 70
     0
 74
     2
  0
LINE
  5
363
330
35C
100
AcDbEntity
  8
A
  6
POINT
 62
     3
100
AcDbLine
 10
-1.751893877983093
 20
0.0
 30
0.0
 11
-3.153409105674783
 21
0.0
 31
0.0
  0
LWPOLYLINE
  5
364
330
35C
100
AcDbEntity
  8
A
  6
SYMBOL_C
 62
     4
100
AcDbPolyline
 90
        5
 70
     0
 43
0.0
 10
-7.35795478874985
 20
2.102272528274496
 10
-7.35795478874985
 20
-2.102272528274496
 10
-3.153409105674783
 20
-2.102272528274496
 10
-3.153409105674783
 20
2.102272528274496
 10
-7.35795478874985
 20
2.102272528274496
  0
ARC
  5
36B
330
35C
100
AcDbEntity
  8
A
  6
FIN
 62
     7
100
AcDbCircle
 10
-5.25568151473999
 20
0.4817711114883423
 30
0.0
 40
0.5693652629852295
100
AcDbArc
 50
22.61984635855541
 51
157.3801628692396
  0
ARC
  5
36C
330
35C
100
AcDbEntity
  8
A
  6
FIN
 62
     7
100
AcDbCircle
 10
-5.501511573791503
 20
-0.1455201208591461
 30
0.0
 40
0.2856723368167877
100
AcDbArc
 50
30.62359911126982
 51
168.3010916138673
  0
ARC
  5
36D
330
35C
100
AcDbEntity
  8
A
  6
FIN
 62
     7
100
AcDbCircle
 10
-5.009321689605712
 20
0.1423412710428238
 30
0.0
 40
0.2845248579978943
100
AcDbArc
 50
210.0183721913774
 51
348.9063102057949
  0
ARC
  5
36E
330
35C
100
AcDbEntity
  8
A
  6
FIN
 62
     7
100
AcDbCircle
 10
-5.25568151473999
 20
-0.4817711114883423
 30
0.0
 40
0.5693652629852295
100
AcDbArc
 50
202.6198471486729
 51
337.3801636593573
  0
ARC
  5
36F
330
35C
100
AcDbEntity
  8
A
  6
FIN
 62
     7
100
AcDbCircle
 10
-4.489232540130615
 20
-0.0000000000000013
 30
0.0
 40
1.46981942653656
100
AcDbArc
 50
151.5257112599601
 51
208.4742987579524
  0
ARC
  5
370
330
35C
100
AcDbEntity
  8
A
  6
FIN
 62
     7
100
AcDbCircle
 10
-6.044037342071532
 20
0.0
 30
0.0
 40
1.489112854003906
100
AcDbArc
 50
331.9275839185682
 51
28.07242609934435
  0
ENDBLK
  5
372
330
35C
100
AcDbEntity
  8
0
100
AcDbBlockEnd
  0
BLOCK
  5
3E0
330
37F
100
AcDbEntity
  8
0
100
AcDbBlockBegin
  2
CLAVIER_KNX_0_3_1
 70
     2
 10
0.0
 20
0.0
 30
0.0
  3
CLAVIER_KNX_0_3_1
  1

  0
ATTDEF
  5
380
330
37F
100
AcDbEntity
  8
A
  6
FIN
 62
     1
100
AcDbText
 10
0.0
 20
2.102272528274496
 30
0.0
 40
1.512885498915399
  1

 41
1.149999999999999
  7
ARIAL
 72
     4
 11
0.0
 21
2.102272528274496
 31
0.0
100
AcDbAttributeDefinition
  3

  2
$PL:1
 70
     0
 74
     2
  0
ATTDEF
  5
381
330
37F
100
AcDbEntity
  8
A
  6
FIN
 62
     1
100
AcDbText
 10
7.007575511932372
 20
2.102272737116521
 30
0.0
 40
1.512885498915399
  1

 41
1.149999999999999
  7
ARIAL
 72
     4
 11
7.007575511932372
 21
2.102272737116521
 31
0.0
100
AcDbAttributeDefinition
  3

  2
$PL:2
 70
     0
 74
     2
  0
ATTDEF
  5
382
330
37F
100
AcDbEntity
  8
A
  6
FIN
 62
     3
100
AcDbText
 10
-4.204547980337338
 20
22.42799168672668
 30
0.0
 40
2.094764536959783
  1

 41
0.9200000000000001
  7
ARIAL
 11
-4.204547980337338
 21
23.47537395520658
 31
0.0
100
AcDbAttributeDefinition
  3

  2
$NOMCOMP
 70
     0
 74
     2
  0
ATTDEF
  5
383
330
37F
100
AcDbEntity
  8
A
  6
FIN
 62
     4
100
AcDbText
 10
28.03030204772948
 20
22.31036820196745
 30
0.0
 40
1.629261306524276
  1

 41
0.9200000000000001
  7
ARIAL
 72
     2
 11
28.03030204772948
 21
23.12499885522958
 31
0.0
100
AcDbAttributeDefinition
  3

  2
TYPE
 70
     0
 74
     2
  0
ATTDEF
  5
384
330
37F
100
AcDbEntity
  8
A
  6
FIN
 62
     1
100
AcDbText
 10
17.51893877983093
 20
30.13257603789815
 30
0.0
 40
1.512885498915399
  1

 41
1.149999999999999
  7
ARIAL
 72
     4
 11
17.51893877983093
 21
30.13257603789815
 31
0.0
100
AcDbAttributeDefinition
  3

  2
$PL:3
 70
     0
 74
     2
  0
ATTDEF
  5
385
330
37F
100
AcDbEntity
  8
A
  6
FIN
 62
     1
100
AcDbText
 10
24.52651429176331
 20
30.13257603789815
 30
0.0
 40
1.512885498915399
  1

 41
1.149999999999999
  7
ARIAL
 72
     4
 11
24.52651429176331
 21
30.13257603789815
 31
0.0
100
AcDbAttributeDefinition
  3

  2
$PL:4
 70
     0
 74
     2
  0
ATTDEF
  5
386
330
37F
100
AcDbEntity
  8
A
  6
FIN
 62
     1
100
AcDbText
 10
24.52651429176331
 20
2.102272737116521
 30
0.0
 40
1.512885498915399
  1

 41
1.149999999999999
  7
ARIAL
 72
     4
 11
24.52651429176331
 21
2.102272737116521
 31
0.0
100
AcDbAttributeDefinition
  3

  2
$PL:5
 70
     0
 74
     2
  0
ATTDEF
  5
387
330
37F
100
AcDbEntity
  8
A
  6
FIN
 62
     1
100
AcDbText
 10
31.53408980369567
 20
2.102272319432473
 30
0.0
 40
1.512885498915399
  1

 41
1.149999999999999
  7
ARIAL
 72
     4
 11
31.53408980369567
 21
2.102272319432473
 31
0.0
100
AcDbAttributeDefinition
  3

  2
$PL:6
 70
     0
 74
     2
  0
ATTDEF
  5
388
330
37F
100
AcDbEntity
  8
A
  6
FIN
 62
     1
100
AcDbText
 10
38.54166531562804
 20
2.102272737116521
 30
0.0
 40
1.512885498915399
  1

 41
1.149999999999999
  7
ARIAL
 72
     4
 11
38.54166531562804
 21
2.102272737116521
 31
0.0
100
AcDbAttributeDefinition
  3

  2
$PL:8
 70
     0
 74
     2
  0
ATTDEF
  5
389
330
37F
100
AcDbEntity
  8
A
  6
FIN
 62
     1
100
AcDbText
 10
14.36552779457793
 20
2.102272737116521
 30
0.0
 40
1.512885498915399
  1

 41
1.149999999999999
  7
ARIAL
 72
     4
 11
14.36552779457793
 21
2.102272737116521
 31
0.0
100
AcDbAttributeDefinition
  3

  2
$PL:7
 70
     0
 74
     2
  0
LWPOLYLINE
  5
38A
330
37F
100
AcDbEntity
  8
A
  6
SYMBOL_C
 62
     4
100
AcDbPolyline
 90
        5
 70
     0
 43
0.0
 10
4.9053031924999
 20
3.503787755966186
 10
4.9053031924999
 20
0.0
 10
9.109849502101043
 20
0.0
 10
9.109849502101043
 20
3.503787755966186
 10
4.9053031924999
 20
3.503787755966186
  0
LWPOLYLINE
  5
391
330
37F
100
AcDbEntity
  8
A
  6
SYMBOL_C
 62
     4
100
AcDbPolyline
 90
        5
 70
     0
 43
0.0
 10
-2.102272319432473
 20
3.503787755966186
 10
-2.102272319432473
 20
0.0
 10
2.102273990168669
 20
0.0
 10
2.102273990168669
 20
3.503787755966186
 10
-2.102272319432473
 20
3.503787755966186
  0
LINE
  5
398
330
37F
100
AcDbEntity
  8
A
  6
SYMBOL_C
 62
     4
100
AcDbLine
 10
-7.007575511932372
 20
1.751893877983093
 30
0.0
 11
-2.10227315480057
 21
1.751893877983093
 31
0.0
  0
LINE
  5
399
330
37F
100
AcDbEntity
  8
A
  6
SYMBOL_C
 62
     4
100
AcDbLine
 10
2.102272737116521
 20
1.751893877983093
 30
0.0
 11
4.9053031924999
 21
1.751893877983093
 31
0.0
  0
LWPOLYLINE
  5
39A
330
37F
100
AcDbEntity
  8
A
  6
SYMBOL_C
 62
     4
100
AcDbPolyline
 90
        5
 70
     0
 43
0.0
 10
15.41666646039846
 20
31.53408980369567
 10
15.41666646039846
 20
28.03030204772948
 10
19.6212127699996
 20
28.03030204772948
 10
19.6212127699996
 20
31.53408980369567
 10
15.41666646039846
 20
31.53408980369567
  0
LWPOLYLINE
  5
3A1
330
37F
100
AcDbEntity
  8
A
  6
SYMBOL_C
 62
     4
100
AcDbPolyline
 90
        5
 70
     0
 43
0.0
 10
22.42424197233082
 20
31.53408980369567
 10
22.42424197233082
 20
28.03030204772948
 10
26.62878828193198
 20
28.03030204772948
 10
26.62878828193198
 20
31.53408980369567
 10
22.42424197233082
 20
31.53408980369567
  0
LWPOLYLINE
  5
3A8
330
37F
100
AcDbEntity
  8
A
  6
SYMBOL_C
 62
     4
100
AcDbPolyline
 90
        5
 70
     0
 43
0.0
 10
22.42424030159464
 20
3.503787755966186
 10
22.42424030159464
 20
0.0
 10
26.62878828193198
 20
0.0
 10
26.62878828193198
 20
3.503787755966186
 10
22.42424030159464
 20
3.503787755966186
  0
LWPOLYLINE
  5
3AF
330
37F
100
AcDbEntity
  8
A
  6
SYMBOL_C
 62
     4
100
AcDbPolyline
 90
        5
 70
     0
 43
0.0
 10
29.43181581352701
 20
3.503787755966186
 10
29.43181581352701
 20
0.0
 10
33.63636379386434
 20
0.0
 10
33.63636379386434
 20
3.503787755966186
 10
29.43181581352701
 20
3.503787755966186
  0
LINE
  5
3B6
330
37F
100
AcDbEntity
  8
A
  6
SYMBOL_C
 62
     4
100
AcDbLine
 10
19.62121109926341
 20
29.78219592571258
 30
0.0
 11
22.42424197233082
 21
29.78219592571258
 31
0.0
  0
LWPOLYLINE
  5
3B7
330
37F
100
AcDbEntity
  8
A
  6
SYMBOL_C
 62
     4
100
AcDbPolyline
 90
        5
 70
     0
 43
0.0
 10
11.91287870443227
 20
3.503787755966186
 10
11.91287870443227
 20
0.0
 10
16.1174266847696
 20
0.0
 10
16.1174266847696
 20
3.503787755966186
 10
11.91287870443227
 20
3.503787755966186
  0
LWPOLYLINE
  5
3BE
330
37F
100
AcDbEntity
  8
A
  6
SYMBOL_C
 62
     4
100
AcDbPolyline
 90
        5
 70
     0
 43
0.0
 10
36.43939132545938
 20
3.503787755966186
 10
36.43939132545938
 20
0.0
 10
40.64393930579671
 20
0.0
 10
40.64393930579671
 20
3.503787755966186
 10
36.43939132545938
 20
3.503787755966186
  0
LINE
  5
3C5
330
37F
100
AcDbEntity
  8
A
  6
SYMBOL_C
 62
     4
100
AcDbLine
 10
26.62878661119578
 20
1.751893877983093
 30
0.0
 11
29.43181915499939
 21
1.751893877983093
 31
0.0
  0
LINE
  5
3C6
330
37F
100
AcDbEntity
  8
A
  6
SYMBOL_C
 62
     4
100
AcDbLine
 10
33.63636379386434
 20
1.751893877983093
 30
0.0
 11
36.43939466693178
 21
1.751893877983093
 31
0.0
  0
LINE
  5
3C7
330
37F
100
AcDbEntity
  8
A
  6
SYMBOL_C
 62
     4
100
AcDbLine
 10
26.62878828193198
 20
29.78219592571258
 30
0.0
 11
29.43181581352701
 21
29.78219592571258
 31
0.0
  0
LINE
  5
3C8
330
37F
100
AcDbEntity
  8
A
  6
FIN
 62
     7
100
AcDbLine
 10
40.9943160765099
 20
1.751893877983093
 30
0.0
 11
46.24999771045917
 21
1.751893877983093
 31
0.0
  0
LINE
  5
3C9
330
37F
100
AcDbEntity
  8
A
  6
FIN
 62
     7
100
AcDbLine
 10
16.11742334329722
 20
1.751893877983093
 30
0.0
 11
22.42424197233082
 21
1.751893877983093
 31
0.0
  0
LINE
  5
3CA
330
37F
100
AcDbEntity
  8
A
  6
FIN
 62
     7
100
AcDbLine
 10
45.899620939746
 20
29.78219592571258
 30
0.0
 11
29.08143904281383
 21
29.78219592571258
 31
0.0
  0
LINE
  5
3CB
330
37F
100
AcDbEntity
  8
A
  6
FIN
 62
     7
100
AcDbLine
 10
-7.007575511932372
 20
29.78219592571258
 30
0.0
 11
15.41666646039846
 21
29.78219592571258
 31
0.0
  0
LINE
  5
3CC
330
37F
100
AcDbEntity
  8
A
  6
FIN
 62
     7
100
AcDbLine
 10
7.007575511932372
 20
3.503787755966186
 30
0.0
 11
7.007575511932372
 21
8.759469389915466
 31
0.0
  0
LINE
  5
3CD
330
37F
100
AcDbEntity
  8
A
  6
FIN
 62
     7
100
AcDbLine
 10
7.007575511932372
 20
8.759469389915466
 30
0.0
 11
11.5624994276148
 21
16.81818189693217
 31
0.0
  0
LINE
  5
3CE
330
37F
100
AcDbEntity
  8
A
  6
FIN
 62
     7
100
AcDbLine
 10
10.51136326789856
 20
16.81818189693217
 30
0.0
 11
14.01515102386475
 21
16.81818189693217
 31
0.0
  0
LINE
  5
3CF
330
37F
100
AcDbEntity
  8
A
  6
FIN
 62
     7
100
AcDbLine
 10
14.01515102386475
 20
3.503787755966186
 30
0.0
 11
14.01515102386475
 21
16.81818189693217
 31
0.0
  0
LINE
  5
3D0
330
37F
100
AcDbEntity
  8
A
  6
FIN
 62
     7
100
AcDbLine
 10
0.0
 20
3.503787755966186
 30
0.0
 11
0.0
 21
16.81818189693217
 31
0.0
  0
LINE
  5
3D1
330
37F
100
AcDbEntity
  8
A
  6
FIN
 62
     7
100
AcDbLine
 10
0.0
 20
16.81818189693217
 30
0.0
 11
3.503787755966186
 21
16.81818189693217
 31
0.0
  0
LINE
  5
3D2
330
37F
100
AcDbEntity
  8
A
  6
FIN
 62
     7
100
AcDbLine
 10
31.53408980369567
 20
3.503787755966186
 30
0.0
 11
31.53408980369567
 21
8.759469389915466
 31
0.0
  0
LINE
  5
3D3
330
37F
100
AcDbEntity
  8
A
  6
FIN
 62
     7
100
AcDbLine
 10
31.53408980369567
 20
8.759469389915466
 30
0.0
 11
36.08901455474621
 21
16.81818189693217
 31
0.0
  0
LINE
  5
3D4
330
37F
100
AcDbEntity
  8
A
  6
FIN
 62
     7
100
AcDbLine
 10
35.03787755966187
 20
16.81818189693217
 30
0.0
 11
38.54166531562804
 21
16.81818189693217
 31
0.0
  0
LINE
  5
3D5
330
37F
100
AcDbEntity
  8
A
  6
FIN
 62
     7
100
AcDbLine
 10
38.54166531562804
 20
3.503787755966186
 30
0.0
 11
38.54166531562804
 21
16.81818189693217
 31
0.0
  0
LINE
  5
3D6
330
37F
100
AcDbEntity
  8
A
  6
FIN
 62
     7
100
AcDbLine
 10
24.52651429176331
 20
3.503787755966186
 30
0.0
 11
24.52651429176331
 21
16.81818189693217
 31
0.0
  0
LINE
  5
3D7
330
37F
100
AcDbEntity
  8
A
  6
FIN
 62
     7
100
AcDbLine
 10
24.52651429176331
 20
16.81818189693217
 30
0.0
 11
28.03030204772948
 21
16.81818189693217
 31
0.0
  0
LINE
  5
3D8
330
37F
100
AcDbEntity
  8
A
  6
FIN
 62
     7
100
AcDbLine
 10
-11.21212098616542
 20
27.32954516483073
 30
0.0
 11
-11.21212098616542
 21
4.905302774815851
 31
0.0
  0
LINE
  5
3D9
330
37F
100
AcDbEntity
  8
A
  6
FIN
 62
     7
100
AcDbLine
 10
49.75378546642537
 20
27.32954516483073
 30
0.0
 11
49.75378546642537
 21
4.905302774815851
 31
0.0
  0
LINE
  5
3DA
330
37F
100
AcDbEntity
  8
A
  6
FIN
 62
     7
100
AcDbLine
 10
-11.21212098616542
 20
27.32954516483073
 30
0.0
 11
-6.657196652798946
 21
29.78219592571258
 31
0.0
  0
LINE
  5
3DB
330
37F
100
AcDbEntity
  8
A
  6
FIN
 62
     7
100
AcDbLine
 10
45.899620939746
 20
29.78219592571258
 30
0.0
 11
49.75378546642537
 21
27.32954516483073
 31
0.0
  0
LINE
  5
3DC
330
37F
100
AcDbEntity
  8
A
  6
FIN
 62
     7
100
AcDbLine
 10
-11.21212098616542
 20
4.905302774815851
 30
0.0
 11
-7.007575511932372
 21
1.751893877983093
 31
0.0
  0
LINE
  5
3DD
330
37F
100
AcDbEntity
  8
A
  6
FIN
 62
     7
100
AcDbLine
 10
46.24999771045917
 20
1.751893877983093
 30
0.0
 11
49.75378546642537
 21
4.905302774815851
 31
0.0
  0
LINE
  5
3DE
330
37F
100
AcDbEntity
  8
A
  6
FIN
 62
     7
100
AcDbLine
 10
9.109848666732943
 20
1.751893877983093
 30
0.0
 11
11.91287870443227
 21
1.751893877983093
 31
0.0
  0
TEXT
  5
3DF
330
37F
100
AcDbEntity
  8
A
  6
FIN
 62
     1
100
AcDbText
 10
12.44277480438914
 20
25.59416829467748
 30
0.0
 40
1.396509691306523
  1
ALIM  12/24 CC AC
 41
0.9200000000000001
  7
ARIAL
 72
     4
 11
20.32196631142597
 21
26.29242314033074
 31
0.0
100
AcDbText
  0
ENDBLK
  5
3E1
330
37F
100
AcDbEntity
  8
0
100
AcDbBlockEnd
  0
BLOCK
  5
411
330
407
100
AcDbEntity
  8
0
100
AcDbBlockBegin
  2
002C0_000_0_3_1
 70
     2
 10
0.0
 20
0.0
 30
0.0
  3
002C0_000_0_3_1
  1

  0
ATTDEF
  5
408
330
407
100
AcDbEntity
  8
A
  6
FIN
 62
     3
100
AcDbText
 10
2.803030246541354
 20
0.3503787808176693
 30
0.0
 40
1.280133883697645
  1

 41
0.9200000000000001
  7
ARIAL
 72
     4
 11
2.803030246541354
 21
0.3503787808176693
 31
0.0
100
AcDbAttributeDefinition
  3

  2
$REPERE
 70
     0
 74
     2
  0
ATTDEF
  5
409
330
407
100
AcDbEntity
  8
A
  6
FIN
 62
     1
100
AcDbText
 10
-1.751893877983093
 20
1.287642083854383
 30
0.0
 40
1.629261306524276
  1

 41
0.9200000000000001
  7
ARIAL
 72
     2
 11
-1.751893877983093
 21
2.102272737116521
 31
0.0
100
AcDbAttributeDefinition
  3

  2
$NUM_EQUI
 70
     0
 74
     2
  0
ATTDEF
  5
40A
330
407
100
AcDbEntity
  8
A
  6
FIN
 62
     1
100
AcDbText
 10
3.153414326725397
 20
0.3504001610199339
 30
0.0
 40
1.280133883697645
  1

 41
0.9200000000000001
  7
ARIAL
 72
     4
 11
3.153414326725397
 21
0.3504001610199339
 31
0.0
100
AcDbAttributeDefinition
  3

  2
$POS_REFCRO_1
 70
     0
 74
     2
  0
LINE
  5
40B
330
407
100
AcDbEntity
  8
A
  6
MOYEN
 62
     4
100
AcDbLine
 10
0.0
 20
1.401515123270677
 30
0.0
 11
0.0
 21
-1.401515123270677
 31
0.0
  0
LINE
  5
40C
330
407
100
AcDbEntity
  8
A
  6
MOYEN
 62
     4
100
AcDbLine
 10
0.0
 20
-1.401515123270677
 30
0.0
 11
5.25568163394928
 21
-1.401515123270677
 31
0.0
  0
LINE
  5
40D
330
407
100
AcDbEntity
  8
A
  6
MOYEN
 62
     4
100
AcDbLine
 10
5.25568163394928
 20
-1.401515123270677
 30
0.0
 11
7.007575511932372
 21
0.0
 31
0.0
  0
LINE
  5
40E
330
407
100
AcDbEntity
  8
A
  6
MOYEN
 62
     4
100
AcDbLine
 10
7.007575511932372
 20
0.0
 30
0.0
 11
5.25568163394928
 21
1.401515123270677
 31
0.0
  0
LINE
  5
40F
330
407
100
AcDbEntity
  8
A
  6
MOYEN
 62
     4
100
AcDbLine
 10
5.25568163394928
 20
1.401515123270677
 30
0.0
 11
0.0
 21
1.401515123270677
 31
0.0
  0
LINE
  5
410
330
407
100
AcDbEntity
  8
A
  6
MOYEN
 62
     4
100
AcDbLine
 10
0.0
 20
0.0
 30
0.0
 11
-0.7007575616353386
 21
0.0
 31
0.0
  0
ENDBLK
  5
412
330
407
100
AcDbEntity
  8
0
100
AcDbBlockEnd
  0
ENDSEC
  0
SECTION
  2
ENTITIES
  0
INSERT
  5
CB
330
1F
100
AcDbEntity
  8
A
  6
FIN
 62
     0
100
AcDbBlockReference
  2
14
 10
0.0
 20
0.0
 30
0.0
  0
TEXT
  5
CC
330
1F
100
AcDbEntity
  8
A
  6
FIN
 62
     7
100
AcDbText
 10
265.3862031278786
 20
1.161709504600529
 30
0.0
 40
1.992857142857142
  1
FOLIO:
 41
0.9200000000000001
  7
ARIAL
 72
     4
 11
269.5845794677733
 21
2.158817768096924
 31
0.0
100
AcDbText
  0
TEXT
  5
CD
330
1F
100
AcDbEntity
  8
A
  6
FIN
 62
     7
100
AcDbText
 10
281.3927282589705
 20
1.10391902923584
 30
0.0
 40
1.992857142857142
  1
2
 41
0.9200000000000001
  7
ARIAL
 72
     2
 11
282.8171997070313
 21
1.10391902923584
 31
0.0
100
AcDbText
  0
TEXT
  5
CE
330
1F
100
AcDbEntity
  8
A
  6
FIN
 62
     7
100
AcDbText
 10
283.6761474609375
 20
1.090788841247559
 30
0.0
 40
1.992857142857142
  1
/
 41
0.9200000000000001
  7
ARIAL
100
AcDbText
  0
TEXT
  5
CF
330
1F
100
AcDbEntity
  8
A
  6
FIN
 62
     7
100
AcDbText
 10
285.0936889648437
 20
1.161208152770995
 30
0.0
 40
1.992857142857142
  1
5
 41
0.9200000000000001
  7
ARIAL
100
AcDbText
  0
TEXT
  5
D0
330
1F
100
AcDbEntity
  8
A
  6
FIN
 62
     7
100
AcDbText
 10
141.6080932617188
 20
15.69452667236328
 30
0.0
 40
1.992857142857142
  1
Etabli par:
 41
0.9200000000000001
  7
ARIAL
100
AcDbText
  0
TEXT
  5
D1
330
1F
100
AcDbEntity
  8
A
  6
FIN
 62
     7
100
AcDbText
 10
213.0204533226892
 20
15.39131184148407
 30
0.0
 40
1.992857142857142
  1
SEE-PROJECT
 41
0.9200000000000001
  7
ARIAL
 72
     4
 11
221.9862442016601
 21
16.38842010498047
 31
0.0
100
AcDbText
  0
TEXT
  5
D2
330
1F
100
AcDbEntity
  8
A
  6
FIN
 62
     7
100
AcDbText
 10
172.2350921630859
 20
15.77711868286133
 30
0.0
 40
1.992857142857142
  1
Date :
 41
0.9200000000000001
  7
ARIAL
100
AcDbText
  0
TEXT
  5
D3
330
1F
100
AcDbEntity
  8
A
  6
FIN
 62
     7
100
AcDbText
 10
179.9422607421875
 20
15.48161888122559
 30
0.0
 40
1.992857142857142
  1
23/09/2008
 41
0.9200000000000001
  7
ARIAL
100
AcDbText
  0
TEXT
  5
D5
330
1F
100
AcDbEntity
  8
A
  6
FIN
 62
     7
100
AcDbText
 10
3.618404388427733
 20
3.265975952148437
 30
0.0
 40
3.321428571428572
  1
ENTREES
 41
0.9200000000000001
  7
ARIAL
100
AcDbText
  0
TEXT
  5
D6
330
1F
100
AcDbEntity
  8
A
  6
FIN
 62
     7
100
AcDbText
 10
163.3501739501953
 20
10.57504653930664
 30
0.0
 40
1.992857142857142
  1
Modifications
 41
0.9200000000000001
  7
ARIAL
100
AcDbText
  0
TEXT
  5
D7
330
1F
100
AcDbEntity
  8
A
  6
FIN
 62
     7
100
AcDbText
 10
209.9400634765625
 20
10.40599346160889
 30
0.0
 40
1.992857142857142
  1
Date
 41
0.9200000000000001
  7
ARIAL
100
AcDbText
  0
TEXT
  5
D8
330
1F
100
AcDbEntity
  8
A
  6
FIN
 62
     7
100
AcDbText
 10
225.3760223388671
 20
10.5940065383911
 30
0.0
 40
1.992857142857142
  1
Etabli par
 41
0.9200000000000001
  7
ARIAL
100
AcDbText
  0
TEXT
  5
D9
330
1F
100
AcDbEntity
  8
A
  6
FIN
 62
     7
100
AcDbText
 10
141.2790985107421
 20
7.872970581054687
 30
0.0
 40
1.328571428571428
  1
Edition originale
 41
0.9200000000000001
  7
ARIAL
100
AcDbText
  0
TEXT
  5
DA
330
1F
100
AcDbEntity
  8
A
  6
FIN
 62
     7
100
AcDbText
 10
206.1279602050781
 20
7.8822603225708
 30
0.0
 40
1.328571428571428
  1
23/09/2008
 41
0.9200000000000001
  7
ARIAL
100
AcDbText
  0
TEXT
  5
DB
330
1F
100
AcDbEntity
  8
A
  6
FIN
 62
     7
100
AcDbText
 10
224.9320068359375
 20
7.8822603225708
 30
0.0
 40
1.328571428571428
  1
CB
 41
0.9200000000000001
  7
ARIAL
100
AcDbText
  0
TEXT
  5
DC
330
1F
100
AcDbEntity
  8
A
  6
FIN
 62
     7
100
AcDbText
 10
141.2750091552734
 20
5.451072692871093
 30
0.0
 40
1.328571428571428
  1
Modification circuit chauffage
 41
0.9200000000000001
  7
ARIAL
100
AcDbText
  0
TEXT
  5
DD
330
1F
100
AcDbEntity
  8
A
  6
FIN
 62
     7
100
AcDbText
 10
206.1238708496094
 20
5.460361480712891
 30
0.0
 40
1.328571428571428
  1
17/10/2008
 41
0.9200000000000001
  7
ARIAL
100
AcDbText
  0
TEXT
  5
DE
330
1F
100
AcDbEntity
  8
A
  6
FIN
 62
     7
100
AcDbText
 10
224.9279174804688
 20
5.460361480712891
 30
0.0
 40
1.328571428571428
  1
CB
 41
0.9200000000000001
  7
ARIAL
100
AcDbText
  0
TEXT
  5
DF
330
1F
100
AcDbEntity
  8
A
  6
FIN
 62
     7
100
AcDbText
 10
141.2959594726563
 20
2.898968696594238
 30
0.0
 40
1.328571428571428
  1
Modification sorties
 41
0.9200000000000001
  7
ARIAL
100
AcDbText
  0
TEXT
  5
E0
330
1F
100
AcDbEntity
  8
A
  6
FIN
 62
     7
100
AcDbText
 10
206.1448211669921
 20
2.908257484436035
 30
0.0
 40
1.328571428571428
  1
15/01/2009
 41
0.9200000000000001
  7
ARIAL
100
AcDbText
  0
TEXT
  5
E1
330
1F
100
AcDbEntity
  8
A
  6
FIN
 62
     7
100
AcDbText
 10
224.9488525390625
 20
2.908257484436035
 30
0.0
 40
1.328571428571428
  1
FA
 41
0.9200000000000001
  7
ARIAL
100
AcDbText
  0
LINE
  5
E2
330
1F
100
AcDbEntity
  8
A
  6
VIOLET
 62
     6
100
AcDbLine
 10
119.1287837028502
 20
86.57196736335754
 30
0.0
 11
119.1287837028502
 21
100.5871183872222
 31
0.0
  0
LINE
  5
E3
330
1F
100
AcDbEntity
  8
A
  6
VIOLET
 62
     6
100
AcDbLine
 10
140.1515102386474
 20
153.143934726715
 30
0.0
 11
140.1515102386474
 21
163.6552979946136
 31
0.0
  0
LINE
  5
E4
330
1F
100
AcDbEntity
  8
A
  6
JAUNE
 62
     2
100
AcDbLine
 10
63.06817960739135
 20
58.54166531562804
 30
0.0
 11
63.06817960739135
 21
41.02272653579712
 31
0.0
  0
TEXT
  5
E5
330
1F
100
AcDbEntity
  8
A
  6
FIN
 62
     4
100
AcDbText
 10
61.98120020689589
 20
50.98816969576559
 30
0.0
 40
1.163758076088768
  1
+
 50
90.0
 41
1.149999999999999
  7
ARIAL
 72
     4
 11
61.59658848256778
 21
51.53408813295948
 31
0.0
100
AcDbText
  0
LINE
  5
E6
330
1F
100
AcDbEntity
  8
A
  6
VIOLET
 62
     6
100
AcDbLine
 10
206.723477602005
 20
132.1212081909179
 30
0.0
 11
206.723477602005
 21
142.6325714588164
 31
0.0
  0
LINE
  5
E7
330
1F
100
AcDbEntity
  8
A
  6
VIOLET
 62
     6
100
AcDbLine
 10
119.1287837028502
 20
107.5946938991547
 30
0.0
 11
119.1287837028502
 21
118.1060571670532
 31
0.0
  0
HATCH
  5
E8
330
1F
100
AcDbEntity
  8
A
  6
VIOLET
 62
     6
100
AcDbHatch
 10
0.0
 20
0.0
 30
0.0
210
0.0
220
0.0
230
1.0
  2
SOLID
 70
     1
 71
     0
 91
        1
 92
        0
 93
        1
 72
     2
 10
199.7159020900726
 20
198.6931755542755
 40
0.6499999761581421
 50
0.0
 51
360.0
 73
     1
 97
        0
 75
     0
 76
     1
 98
        0
  0
HATCH
  5
E9
330
1F
100
AcDbEntity
  8
A
  6
VIOLET
 62
     6
100
AcDbHatch
 10
0.0
 20
0.0
 30
0.0
210
0.0
220
0.0
230
1.0
  2
SOLID
 70
     1
 71
     0
 91
        1
 92
        0
 93
        1
 72
     2
 10
273.2954449653626
 20
198.6931755542755
 40
0.6499999761581421
 50
0.0
 51
360.0
 73
     1
 97
        0
 75
     0
 76
     1
 98
        0
  0
LINE
  5
EA
330
1F
100
AcDbEntity
  8
A
  6
VIOLET
 62
     6
100
AcDbLine
 10
200.3659020595322
 20
198.6931755542755
 30
0.0
 11
272.6454449959029
 21
198.6931755542755
 31
0.0
  0
TEXT
  5
EB
330
1F
100
AcDbEntity
  8
A
  6
FIN
 62
     6
100
AcDbText
 10
232.750705189352
 20
199.0776568458079
 30
0.0
 40
1.86201292174203
  1
125
 41
0.9200000000000001
  7
ARIAL
 72
     4
 11
234.7471234367275
 21
199.9965970565039
 31
0.0
100
AcDbText
  0
LINE
  5
EC
330
1F
100
AcDbEntity
  8
A
  6
VIOLET
 62
     6
100
AcDbLine
 10
199.7159020900726
 20
188.1818122863769
 30
0.0
 11
199.7159020900726
 21
198.043175584816
 31
0.0
  0
LINE
  5
ED
330
1F
100
AcDbEntity
  8
A
  6
VIOLET
 62
     6
100
AcDbLine
 10
168.1818122863769
 20
86.57196736335754
 30
0.0
 11
168.1818122863769
 21
90.07575511932371
 31
0.0
  0
HATCH
  5
EE
330
1F
100
AcDbEntity
  8
A
  6
VIOLET
 62
     6
100
AcDbHatch
 10
0.0
 20
0.0
 30
0.0
210
0.0
220
0.0
230
1.0
  2
SOLID
 70
     1
 71
     0
 91
        1
 92
        0
 93
        1
 72
     2
 10
147.1590857505798
 20
111.0984816551209
 40
0.6499999761581421
 50
0.0
 51
360.0
 73
     1
 97
        0
 75
     0
 76
     1
 98
        0
  0
LINE
  5
EF
330
1F
100
AcDbEntity
  8
A
  6
VIOLET
 62
     6
100
AcDbLine
 10
147.1590857505798
 20
107.5946938991547
 30
0.0
 11
147.1590857505798
 21
110.4484816856613
 31
0.0
  0
LINE
  5
F0
330
1F
100
AcDbEntity
  8
A
  6
VIOLET
 62
     6
100
AcDbLine
 10
133.143934726715
 20
139.1287837028503
 30
0.0
 11
133.143934726715
 21
146.1363592147827
 31
0.0
  0
LINE
  5
F1
330
1F
100
AcDbEntity
  8
A
  6
VIOLET
 62
     6
100
AcDbLine
 10
98.10605716705323
 20
86.57196736335754
 30
0.0
 11
98.10605716705323
 21
100.5871183872222
 31
0.0
  0
LINE
  5
F2
330
1F
100
AcDbEntity
  8
A
  6
VIOLET
 62
     6
100
AcDbLine
 10
126.1363592147827
 20
86.57196736335754
 30
0.0
 11
126.1363592147827
 21
90.07575511932371
 31
0.0
  0
LINE
  5
F3
330
1F
100
AcDbEntity
  8
A
  6
JAUNE
 62
     2
100
AcDbLine
 10
63.06817960739135
 20
41.02272653579712
 30
0.0
 11
98.10605716705323
 21
41.02272653579712
 31
0.0
  0
TEXT
  5
F4
330
1F
100
AcDbEntity
  8
A
  6
FIN
 62
     4
100
AcDbText
 10
80.04119995002842
 20
42.1097059362926
 30
0.0
 40
1.163758076088768
  1
+
 41
1.149999999999999
  7
ARIAL
 72
     4
 11
80.5871183872223
 21
42.49431766062071
 31
0.0
100
AcDbText
  0
LINE
  5
F5
330
1F
100
AcDbEntity
  8
A
  6
VIOLET
 62
     6
100
AcDbLine
 10
105.1136326789855
 20
177.6704490184783
 30
0.0
 11
133.143934726715
 21
177.6704490184783
 31
0.0
  0
HATCH
  5
F6
330
1F
100
AcDbEntity
  8
A
  6
VIOLET
 62
     6
100
AcDbHatch
 10
0.0
 20
0.0
 30
0.0
210
0.0
220
0.0
230
1.0
  2
SOLID
 70
     1
 71
     0
 91
        1
 92
        0
 93
        1
 72
     2
 10
213.7310531139374
 20
118.1060571670532
 40
0.6499999761581421
 50
0.0
 51
360.0
 73
     1
 97
        0
 75
     0
 76
     1
 98
        0
  0
LINE
  5
F7
330
1F
100
AcDbEntity
  8
A
  6
VIOLET
 62
     6
100
AcDbLine
 10
214.3810530833969
 20
118.1060571670532
 30
0.0
 11
273.2954449653626
 21
118.1060571670532
 31
0.0
  0
TEXT
  5
F8
330
1F
100
AcDbEntity
  8
A
  6
FIN
 62
     6
100
AcDbText
 10
229.2525311070061
 20
118.4905250926961
 30
0.0
 40
1.86201292174203
  1
125
 41
0.9200000000000001
  7
ARIAL
 72
     4
 11
231.2489493543816
 21
119.4094653033922
 31
0.0
100
AcDbText
  0
LINE
  5
F9
330
1F
100
AcDbEntity
  8
A
  6
VIOLET
 62
     6
100
AcDbLine
 10
213.7310531139374
 20
118.7560571365128
 30
0.0
 11
213.7310531139374
 21
125.1136326789856
 31
0.0
  0
LINE
  5
FA
330
1F
100
AcDbEntity
  8
A
  6
VIOLET
 62
     6
100
AcDbLine
 10
119.1287837028502
 20
118.1060571670532
 30
0.0
 11
182.1969633102417
 21
118.1060571670532
 31
0.0
  0
TEXT
  5
FB
330
1F
100
AcDbEntity
  8
A
  6
FIN
 62
     6
100
AcDbText
 10
148.6664552591704
 20
118.4905250926961
 30
0.0
 40
1.86201292174203
  1
201
 41
0.9200000000000001
  7
ARIAL
 72
     4
 11
150.6628735065459
 21
119.4094653033922
 31
0.0
100
AcDbText
  0
LINE
  5
FC
330
1F
100
AcDbEntity
  8
A
  6
VIOLET
 62
     6
100
AcDbLine
 10
122.6325714588165
 20
97.08333063125609
 30
0.0
 11
126.1363592147827
 21
97.08333063125609
 31
0.0
  0
LINE
  5
FD
330
1F
100
AcDbEntity
  8
A
  6
VIOLET
 62
     6
100
AcDbLine
 10
182.1969633102417
 20
111.0984816551209
 30
0.0
 11
206.723477602005
 21
111.0984816551209
 31
0.0
  0
TEXT
  5
FE
330
1F
100
AcDbEntity
  8
A
  6
FIN
 62
     6
100
AcDbText
 10
192.4638022087478
 20
111.4829495807637
 30
0.0
 40
1.86201292174203
  1
204
 41
0.9200000000000001
  7
ARIAL
 72
     4
 11
194.4602204561233
 21
112.4018897914597
 31
0.0
100
AcDbText
  0
LINE
  5
FF
330
1F
100
AcDbEntity
  8
A
  6
VIOLET
 62
     6
100
AcDbLine
 10
189.204538822174
 20
118.1060571670532
 30
0.0
 11
213.0810531444778
 21
118.1060571670532
 31
0.0
  0
LINE
  5
100
330
1F
100
AcDbEntity
  8
A
  6
JAUNE
 62
     2
100
AcDbLine
 10
112.121208190918
 20
41.02272653579712
 30
0.0
 11
283.8068082332611
 21
41.02272653579712
 31
0.0
  0
TEXT
  5
101
330
1F
100
AcDbEntity
  8
A
  6
FIN
 62
     4
100
AcDbText
 10
199.1692886266209
 20
42.1097059362926
 30
0.0
 40
1.163758076088768
  1
+
 41
1.149999999999999
  7
ARIAL
 72
     4
 11
199.7152070638149
 21
42.49431766062071
 31
0.0
100
AcDbText
  0
LINE
  5
102
330
1F
100
AcDbEntity
  8
A
  6
VIOLET
 62
     6
100
AcDbLine
 10
189.204538822174
 20
118.1060571670532
 30
0.0
 11
189.204538822174
 21
125.1136326789856
 31
0.0
  0
LINE
  5
103
330
1F
100
AcDbEntity
  8
A
  6
VIOLET
 62
     6
100
AcDbLine
 10
182.1969633102417
 20
118.1060571670532
 30
0.0
 11
182.1969633102417
 21
125.1136326789856
 31
0.0
  0
HATCH
  5
104
330
1F
100
AcDbEntity
  8
A
  6
JAUNE
 62
     2
100
AcDbHatch
 10
0.0
 20
0.0
 30
0.0
210
0.0
220
0.0
230
1.0
  2
SOLID
 70
     1
 71
     0
 91
        1
 92
        0
 93
        1
 72
     2
 10
17.51893877983093
 20
41.02272653579712
 40
0.6499999761581421
 50
0.0
 51
360.0
 73
     1
 97
        0
 75
     0
 76
     1
 98
        0
  0
LINE
  5
105
330
1F
100
AcDbEntity
  8
A
  6
JAUNE
 62
     2
100
AcDbLine
 10
18.16893874929046
 20
41.02272653579712
 30
0.0
 11
49.05302858352661
 21
41.02272653579712
 31
0.0
  0
LINE
  5
106
330
1F
100
AcDbEntity
  8
A
  6
JAUNE
 62
     2
100
AcDbLine
 10
49.05302858352661
 20
58.54166531562804
 30
0.0
 11
49.05302858352661
 21
41.02272653579712
 31
0.0
  0
TEXT
  5
107
330
1F
100
AcDbEntity
  8
A
  6
FIN
 62
     4
100
AcDbText
 10
47.96604918303112
 20
50.98816969576559
 30
0.0
 40
1.163758076088768
  1
+
 50
90.0
 41
1.149999999999999
  7
ARIAL
 72
     4
 11
47.58143745870301
 21
51.53408813295948
 31
0.0
100
AcDbText
  0
LINE
  5
108
330
1F
100
AcDbEntity
  8
A
  6
VIOLET
 62
     6
100
AcDbLine
 10
206.723477602005
 20
111.0984816551209
 30
0.0
 11
206.723477602005
 21
125.1136326789856
 31
0.0
  0
LINE
  5
109
330
1F
100
AcDbEntity
  8
A
  6
JAUNE
 62
     2
100
AcDbLine
 10
17.51893877983093
 20
58.54166531562804
 30
0.0
 11
17.51893877983093
 21
41.67272650525665
 31
0.0
  0
TEXT
  5
10A
330
1F
100
AcDbEntity
  8
A
  6
FIN
 62
     4
100
AcDbText
 10
16.43195937933545
 20
50.98816969576559
 30
0.0
 40
1.163758076088768
  1
+
 50
90.0
 41
1.149999999999999
  7
ARIAL
 72
     4
 11
16.04734765500734
 21
51.53408813295948
 31
0.0
100
AcDbText
  0
LINE
  5
10B
330
1F
100
AcDbEntity
  8
A
  6
JAUNE
 62
     2
100
AcDbLine
 10
16.86893881037139
 20
41.02272653579712
 30
0.0
 11
10.51136326789856
 21
41.02272653579712
 31
0.0
  0
TEXT
  5
10C
330
1F
100
AcDbEntity
  8
A
  6
FIN
 62
     4
100
AcDbText
 10
13.46923258667086
 20
42.1097059362926
 30
0.0
 40
1.163758076088768
  1
+
 41
1.149999999999999
  7
ARIAL
 72
     4
 11
14.01515102386475
 21
42.49431766062071
 31
0.0
100
AcDbText
  0
HATCH
  5
10D
330
1F
100
AcDbEntity
  8
A
  6
VIOLET
 62
     6
100
AcDbHatch
 10
0.0
 20
0.0
 30
0.0
210
0.0
220
0.0
230
1.0
  2
SOLID
 70
     1
 71
     0
 91
        1
 92
        0
 93
        1
 72
     2
 10
105.1136326789855
 20
111.0984816551209
 40
0.6499999761581421
 50
0.0
 51
360.0
 73
     1
 97
        0
 75
     0
 76
     1
 98
        0
  0
LINE
  5
10E
330
1F
100
AcDbEntity
  8
A
  6
VIOLET
 62
     6
100
AcDbLine
 10
98.10605716705323
 20
111.0984816551209
 30
0.0
 11
104.463632709526
 21
111.0984816551209
 31
0.0
  0
TEXT
  5
10F
330
1F
100
AcDbEntity
  8
A
  6
FIN
 62
     6
100
AcDbText
 10
99.61342667564386
 20
111.4829495807637
 30
0.0
 40
1.86201292174203
  1
115
 41
0.9200000000000001
  7
ARIAL
 72
     4
 11
101.6098449230194
 21
112.4018897914597
 31
0.0
100
AcDbText
  0
HATCH
  5
110
330
1F
100
AcDbEntity
  8
A
  6
VIOLET
 62
     6
100
AcDbHatch
 10
0.0
 20
0.0
 30
0.0
210
0.0
220
0.0
230
1.0
  2
SOLID
 70
     1
 71
     0
 91
        1
 92
        0
 93
        1
 72
     2
 10
262.7840816974639
 20
97.08333063125609
 40
0.6499999761581421
 50
0.0
 51
360.0
 73
     1
 97
        0
 75
     0
 76
     1
 98
        0
  0
LINE
  5
111
330
1F
100
AcDbEntity
  8
A
  6
VIOLET
 62
     6
100
AcDbLine
 10
263.4340816669234
 20
97.08333063125609
 30
0.0
 11
283.8068082332611
 21
97.08333063125609
 31
0.0
  0
TEXT
  5
112
330
1F
100
AcDbEntity
  8
A
  6
FIN
 62
     6
100
AcDbText
 10
271.299026717987
 20
97.46779855689903
 30
0.0
 40
1.86201292174203
  1
126
 41
0.9200000000000001
  7
ARIAL
 72
     4
 11
273.2954449653626
 21
98.38673876759505
 31
0.0
100
AcDbText
  0
HATCH
  5
113
330
1F
100
AcDbEntity
  8
A
  6
VIOLET
 62
     6
100
AcDbHatch
 10
0.0
 20
0.0
 30
0.0
210
0.0
220
0.0
230
1.0
  2
SOLID
 70
     1
 71
     0
 91
        1
 92
        0
 93
        1
 72
     2
 10
140.1515102386474
 20
139.1287837028503
 40
0.6499999761581421
 50
0.0
 51
360.0
 73
     1
 97
        0
 75
     0
 76
     1
 98
        0
  0
LINE
  5
114
330
1F
100
AcDbEntity
  8
A
  6
VIOLET
 62
     6
100
AcDbLine
 10
133.143934726715
 20
139.1287837028503
 30
0.0
 11
139.5015102691879
 21
139.1287837028503
 31
0.0
  0
LINE
  5
115
330
1F
100
AcDbEntity
  8
A
  6
VIOLET
 62
     6
100
AcDbLine
 10
206.723477602005
 20
195.1893877983093
 30
0.0
 11
262.7840816974639
 21
195.1893877983093
 31
0.0
  0
TEXT
  5
116
330
1F
100
AcDbEntity
  8
A
  6
FIN
 62
     6
100
AcDbText
 10
232.7573614023589
 20
195.5738690898417
 30
0.0
 40
1.86201292174203
  1
126
 41
0.9200000000000001
  7
ARIAL
 72
     4
 11
234.7537796497344
 21
196.4928093005378
 31
0.0
100
AcDbText
  0
HATCH
  5
117
330
1F
100
AcDbEntity
  8
A
  6
VIOLET
 62
     6
100
AcDbHatch
 10
0.0
 20
0.0
 30
0.0
210
0.0
220
0.0
230
1.0
  2
SOLID
 70
     1
 71
     0
 91
        1
 92
        0
 93
        1
 72
     2
 10
140.1515102386474
 20
191.6856000423431
 40
0.6499999761581421
 50
0.0
 51
360.0
 73
     1
 97
        0
 75
     0
 76
     1
 98
        0
  0
LINE
  5
118
330
1F
100
AcDbEntity
  8
A
  6
VIOLET
 62
     6
100
AcDbLine
 10
140.1515102386474
 20
170.6628735065459
 30
0.0
 11
140.1515102386474
 21
191.0356000728836
 31
0.0
  0
LINE
  5
119
330
1F
100
AcDbEntity
  8
A
  6
VIOLET
 62
     6
100
AcDbLine
 10
189.204538822174
 20
132.1212081909179
 30
0.0
 11
189.204538822174
 21
142.6325714588164
 31
0.0
  0
LINE
  5
11A
330
1F
100
AcDbEntity
  8
A
  6
VIOLET
 62
     6
100
AcDbLine
 10
213.7310531139374
 20
132.1212081909179
 30
0.0
 11
213.7310531139374
 21
142.6325714588164
 31
0.0
  0
LINE
  5
11B
330
1F
100
AcDbEntity
  8
A
  6
VIOLET
 62
     6
100
AcDbLine
 10
182.1969633102417
 20
132.1212081909179
 30
0.0
 11
182.1969633102417
 21
142.6325714588164
 31
0.0
  0
LINE
  5
11C
330
1F
100
AcDbEntity
  8
A
  6
VIOLET
 62
     6
100
AcDbLine
 10
133.143934726715
 20
170.6628735065459
 30
0.0
 11
133.143934726715
 21
177.6704490184783
 31
0.0
  0
LINE
  5
11D
330
1F
100
AcDbEntity
  8
A
  6
JAUNE
 62
     2
100
AcDbLine
 10
119.1287837028502
 20
37.51893877983092
 30
0.0
 11
119.1287837028502
 21
58.54166531562804
 31
0.0
  0
TEXT
  5
11E
330
1F
100
AcDbEntity
  8
A
  6
FIN
 62
     4
100
AcDbText
 10
117.7290410794476
 20
51.2213850690981
 30
0.0
 40
1.163758076088768
  1
-
 50
90.0
 41
1.149999999999999
  7
ARIAL
 72
     4
 11
117.6571992609715
 21
51.53268638529061
 31
0.0
100
AcDbText
  0
HATCH
  5
11F
330
1F
100
AcDbEntity
  8
A
  6
VIOLET
 62
     6
100
AcDbHatch
 10
0.0
 20
0.0
 30
0.0
210
0.0
220
0.0
230
1.0
  2
SOLID
 70
     1
 71
     0
 91
        1
 92
        0
 93
        1
 72
     2
 10
161.1742367744446
 20
198.6931755542755
 40
0.6499999761581421
 50
0.0
 51
360.0
 73
     1
 97
        0
 75
     0
 76
     1
 98
        0
  0
LINE
  5
120
330
1F
100
AcDbEntity
  8
A
  6
VIOLET
 62
     6
100
AcDbLine
 10
161.1742367744446
 20
170.6628735065459
 30
0.0
 11
161.1742367744446
 21
198.043175584816
 31
0.0
  0
LINE
  5
121
330
1F
100
AcDbEntity
  8
A
  6
VIOLET
 62
     6
100
AcDbLine
 10
161.824236743904
 20
198.6931755542755
 30
0.0
 11
199.0659021206131
 21
198.6931755542755
 31
0.0
  0
LINE
  5
122
330
1F
100
AcDbEntity
  8
A
  6
VIOLET
 62
     6
100
AcDbLine
 10
262.7840816974639
 20
195.1893877983093
 30
0.0
 11
262.7840816974639
 21
97.73333060071564
 31
0.0
  0
TEXT
  5
123
330
1F
100
AcDbEntity
  8
A
  6
FIN
 62
     6
100
AcDbText
 10
262.3996070888763
 20
154.6471073459801
 30
0.0
 40
1.86201292174203
  1
126
 50
90.0
 41
0.9200000000000001
  7
ARIAL
 72
     4
 11
261.4806668781803
 21
156.6435255933557
 31
0.0
100
AcDbText
  0
LINE
  5
124
330
1F
100
AcDbEntity
  8
A
  6
VIOLET
 62
     6
100
AcDbLine
 10
150.6628735065459
 20
191.6856000423431
 30
0.0
 11
140.801510208107
 21
191.6856000423431
 31
0.0
  0
TEXT
  5
125
330
1F
100
AcDbEntity
  8
A
  6
FIN
 62
     6
100
AcDbText
 10
143.4107736252211
 20
192.0700813338756
 30
0.0
 40
1.86201292174203
  1
116
 41
0.9200000000000001
  7
ARIAL
 72
     4
 11
145.4071918725967
 21
192.9890215445716
 31
0.0
100
AcDbText
  0
LINE
  5
126
330
1F
100
AcDbEntity
  8
A
  6
VIOLET
 62
     6
100
AcDbLine
 10
161.1742367744446
 20
146.1363592147827
 30
0.0
 11
161.1742367744446
 21
163.6552979946136
 31
0.0
  0
LINE
  5
127
330
1F
100
AcDbEntity
  8
A
  6
VIOLET
 62
     6
100
AcDbLine
 10
189.204538822174
 20
97.08333063125609
 30
0.0
 11
262.1340817280044
 21
97.08333063125609
 31
0.0
  0
TEXT
  5
128
330
1F
100
AcDbEntity
  8
A
  6
FIN
 62
     6
100
AcDbText
 10
229.2514618358403
 20
97.46779855689903
 30
0.0
 40
1.86201292174203
  1
126
 41
0.9200000000000001
  7
ARIAL
 72
     4
 11
231.2478800832159
 21
98.38673876759505
 31
0.0
100
AcDbText
  0
HATCH
  5
129
330
1F
100
AcDbEntity
  8
A
  6
JAUNE
 62
     2
100
AcDbHatch
 10
0.0
 20
0.0
 30
0.0
210
0.0
220
0.0
230
1.0
  2
SOLID
 70
     1
 71
     0
 91
        1
 92
        0
 93
        1
 72
     2
 10
24.52651429176331
 20
37.51893877983092
 40
0.6499999761581421
 50
0.0
 51
360.0
 73
     1
 97
        0
 75
     0
 76
     1
 98
        0
  0
LINE
  5
12A
330
1F
100
AcDbEntity
  8
A
  6
JAUNE
 62
     2
100
AcDbLine
 10
10.51136326789856
 20
37.51893877983092
 30
0.0
 11
23.87651432230376
 21
37.51893877983092
 31
0.0
  0
TEXT
  5
12B
330
1F
100
AcDbEntity
  8
A
  6
FIN
 62
     4
100
AcDbText
 10
13.70384970767224
 20
38.91868808617837
 30
0.0
 40
1.163758076088768
  1
-
 41
1.149999999999999
  7
ARIAL
 72
     4
 11
14.01515102386475
 21
38.99052990465452
 31
0.0
100
AcDbText
  0
LINE
  5
12C
330
1F
100
AcDbEntity
  8
A
  6
JAUNE
 62
     2
100
AcDbLine
 10
56.06060409545897
 20
37.51893877983092
 30
0.0
 11
56.06060409545897
 21
58.54166531562804
 31
0.0
  0
TEXT
  5
12D
330
1F
100
AcDbEntity
  8
A
  6
FIN
 62
     4
100
AcDbText
 10
54.66085478911154
 20
51.2213850690981
 30
0.0
 40
1.163758076088768
  1
-
 50
90.0
 41
1.149999999999999
  7
ARIAL
 72
     4
 11
54.58901297063539
 21
51.53268638529061
 31
0.0
100
AcDbText
  0
LINE
  5
12E
330
1F
100
AcDbEntity
  8
A
  6
JAUNE
 62
     2
100
AcDbLine
 10
25.17651426122285
 20
37.51893877983092
 30
0.0
 11
56.06060409545897
 21
37.51893877983092
 31
0.0
  0
LINE
  5
12F
330
1F
100
AcDbEntity
  8
A
  6
JAUNE
 62
     2
100
AcDbLine
 10
24.52651429176331
 20
58.54166531562804
 30
0.0
 11
24.52651429176331
 21
38.16893874929047
 31
0.0
  0
TEXT
  5
130
330
1F
100
AcDbEntity
  8
A
  6
FIN
 62
     4
100
AcDbText
 10
23.12676498541586
 20
51.2213850690981
 30
0.0
 40
1.163758076088768
  1
-
 50
90.0
 41
1.149999999999999
  7
ARIAL
 72
     4
 11
23.05492316693972
 21
51.53268638529061
 31
0.0
100
AcDbText
  0
LINE
  5
131
330
1F
100
AcDbEntity
  8
A
  6
JAUNE
 62
     2
100
AcDbLine
 10
70.07575511932373
 20
37.51893877983092
 30
0.0
 11
105.1136326789855
 21
37.51893877983092
 31
0.0
  0
TEXT
  5
132
330
1F
100
AcDbEntity
  8
A
  6
FIN
 62
     4
100
AcDbText
 10
80.2758170710298
 20
38.91868808617837
 30
0.0
 40
1.163758076088768
  1
-
 41
1.149999999999999
  7
ARIAL
 72
     4
 11
80.5871183872223
 21
38.99052990465452
 31
0.0
100
AcDbText
  0
LINE
  5
133
330
1F
100
AcDbEntity
  8
A
  6
JAUNE
 62
     2
100
AcDbLine
 10
70.07575511932373
 20
37.51893877983092
 30
0.0
 11
70.07575511932373
 21
58.54166531562804
 31
0.0
  0
TEXT
  5
134
330
1F
100
AcDbEntity
  8
A
  6
FIN
 62
     4
100
AcDbText
 10
68.67600581297629
 20
51.2213850690981
 30
0.0
 40
1.163758076088768
  1
-
 50
90.0
 41
1.149999999999999
  7
ARIAL
 72
     4
 11
68.60416399450014
 21
51.53268638529061
 31
0.0
100
AcDbText
  0
LINE
  5
135
330
1F
100
AcDbEntity
  8
A
  6
JAUNE
 62
     2
100
AcDbLine
 10
119.1287837028502
 20
37.51893877983092
 30
0.0
 11
283.8068082332611
 21
37.51893877983092
 31
0.0
  0
TEXT
  5
136
330
1F
100
AcDbEntity
  8
A
  6
FIN
 62
     4
100
AcDbText
 10
199.3944360148605
 20
38.91868808617837
 30
0.0
 40
1.163758076088768
  1
-
 41
1.149999999999999
  7
ARIAL
 72
     4
 11
199.705737331053
 21
38.99052990465452
 31
0.0
100
AcDbText
  0
LINE
  5
137
330
1F
100
AcDbEntity
  8
A
  6
VIOLET
 62
     6
100
AcDbLine
 10
133.143934726715
 20
153.143934726715
 30
0.0
 11
133.143934726715
 21
163.6552979946136
 31
0.0
  0
LINE
  5
138
330
1F
100
AcDbEntity
  8
A
  6
VIOLET
 62
     6
100
AcDbLine
 10
199.7159020900726
 20
174.1666612625121
 30
0.0
 11
199.7159020900726
 21
181.1742367744445
 31
0.0
  0
LINE
  5
139
330
1F
100
AcDbEntity
  8
A
  6
VIOLET
 62
     6
100
AcDbLine
 10
168.1818122863769
 20
97.08333063125609
 30
0.0
 11
189.204538822174
 21
97.08333063125609
 31
0.0
  0
LINE
  5
13A
330
1F
100
AcDbEntity
  8
A
  6
JAUNE
 62
     2
100
AcDbLine
 10
112.121208190918
 20
58.54166531562804
 30
0.0
 11
112.121208190918
 21
41.02272653579712
 31
0.0
  0
TEXT
  5
13B
330
1F
100
AcDbEntity
  8
A
  6
FIN
 62
     4
100
AcDbText
 10
111.0342287904225
 20
50.98816969576559
 30
0.0
 40
1.163758076088768
  1
+
 50
90.0
 41
1.149999999999999
  7
ARIAL
 72
     4
 11
110.6496170660943
 21
51.53408813295948
 31
0.0
100
AcDbText
  0
LINE
  5
13C
330
1F
100
AcDbEntity
  8
A
  6
VIOLET
 62
     6
100
AcDbLine
 10
56.06060409545897
 20
198.6931755542755
 30
0.0
 11
160.524236804985
 21
198.6931755542755
 31
0.0
  0
TEXT
  5
13D
330
1F
100
AcDbEntity
  8
A
  6
FIN
 62
     6
100
AcDbText
 10
57.56447174098174
 20
199.0776568458079
 30
0.0
 40
1.86201292174203
  1
125
 41
0.9200000000000001
  7
ARIAL
 72
     4
 11
59.56088998835729
 21
199.9965970565039
 31
0.0
100
AcDbText
  0
LINE
  5
13E
330
1F
100
AcDbEntity
  8
A
  6
VIOLET
 62
     6
100
AcDbLine
 10
189.204538822174
 20
86.57196736335754
 30
0.0
 11
189.204538822174
 21
90.07575511932371
 31
0.0
  0
LINE
  5
13F
330
1F
100
AcDbEntity
  8
A
  6
VIOLET
 62
     6
100
AcDbLine
 10
182.1969633102417
 20
86.57196736335754
 30
0.0
 11
182.1969633102417
 21
111.0984816551209
 31
0.0
  0
LINE
  5
140
330
1F
100
AcDbEntity
  8
A
  6
VIOLET
 62
     6
100
AcDbLine
 10
140.1515102386474
 20
86.57196736335754
 30
0.0
 11
140.1515102386474
 21
138.4787837333907
 31
0.0
  0
LINE
  5
141
330
1F
100
AcDbEntity
  8
A
  6
VIOLET
 62
     6
100
AcDbLine
 10
161.1742367744446
 20
86.57196736335754
 30
0.0
 11
161.1742367744446
 21
139.1287837028503
 31
0.0
  0
TEXT
  5
142
330
1F
100
AcDbEntity
  8
A
  6
FIN
 62
     6
100
AcDbText
 10
160.7891204171134
 20
110.8539572857283
 30
0.0
 40
1.86201292174203
  1
203
 50
90.0
 41
0.9200000000000001
  7
ARIAL
 72
     4
 11
159.870815272216
 21
112.8503755331039
 31
0.0
100
AcDbText
  0
LINE
  5
143
330
1F
100
AcDbEntity
  8
A
  6
VIOLET
 62
     6
100
AcDbLine
 10
147.8090857200394
 20
111.0984816551209
 30
0.0
 11
154.1666612625121
 21
111.0984816551209
 31
0.0
  0
TEXT
  5
144
330
1F
100
AcDbEntity
  8
A
  6
FIN
 62
     6
100
AcDbText
 10
148.6664552591704
 20
111.4829495807637
 30
0.0
 40
1.86201292174203
  1
115
 41
0.9200000000000001
  7
ARIAL
 72
     4
 11
150.6628735065459
 21
112.4018897914597
 31
0.0
100
AcDbText
  0
HATCH
  5
145
330
1F
100
AcDbEntity
  8
A
  6
VIOLET
 62
     6
100
AcDbHatch
 10
0.0
 20
0.0
 30
0.0
210
0.0
220
0.0
230
1.0
  2
SOLID
 70
     1
 71
     0
 91
        1
 92
        0
 93
        1
 72
     2
 10
91.09848165512085
 20
191.6856000423431
 40
0.6499999761581421
 50
0.0
 51
360.0
 73
     1
 97
        0
 75
     0
 76
     1
 98
        0
  0
LINE
  5
146
330
1F
100
AcDbEntity
  8
A
  6
VIOLET
 62
     6
100
AcDbLine
 10
91.7484816245804
 20
191.6856000423431
 30
0.0
 11
139.5015102691879
 21
191.6856000423431
 31
0.0
  0
LINE
  5
147
330
1F
100
AcDbEntity
  8
A
  6
VIOLET
 62
     6
100
AcDbLine
 10
147.1590857505798
 20
86.57196736335754
 30
0.0
 11
147.1590857505798
 21
100.5871183872222
 31
0.0
  0
LINE
  5
148
330
1F
100
AcDbEntity
  8
A
  6
VIOLET
 62
     6
100
AcDbLine
 10
91.09848165512085
 20
100.5871183872222
 30
0.0
 11
91.09848165512085
 21
191.0356000728836
 31
0.0
  0
TEXT
  5
149
330
1F
100
AcDbEntity
  8
A
  6
FIN
 62
     6
100
AcDbText
 10
90.71401372947795
 20
144.1399409674071
 30
0.0
 40
1.86201292174203
  1
116
 50
90.0
 41
0.9200000000000001
  7
ARIAL
 72
     4
 11
89.79507351878194
 21
146.1363592147827
 31
0.0
100
AcDbText
  0
LINE
  5
14A
330
1F
100
AcDbEntity
  8
A
  6
VIOLET
 62
     6
100
AcDbLine
 10
105.1136326789855
 20
86.57196736335754
 30
0.0
 11
105.1136326789855
 21
110.4484816856613
 31
0.0
  0
LINE
  5
14B
330
1F
100
AcDbEntity
  8
A
  6
VIOLET
 62
     6
100
AcDbLine
 10
56.06060409545897
 20
191.6856000423431
 30
0.0
 11
90.44848168566131
 21
191.6856000423431
 31
0.0
  0
TEXT
  5
14C
330
1F
100
AcDbEntity
  8
A
  6
FIN
 62
     6
100
AcDbText
 10
57.56797360404962
 20
192.0700813338756
 30
0.0
 40
1.86201292174203
  1
116
 41
0.9200000000000001
  7
ARIAL
 72
     4
 11
59.56439185142517
 21
192.9890215445716
 31
0.0
100
AcDbText
  0
LINE
  5
14D
330
1F
100
AcDbEntity
  8
A
  6
JAUNE
 62
     2
100
AcDbLine
 10
105.1136326789855
 20
37.51893877983092
 30
0.0
 11
105.1136326789855
 21
58.54166531562804
 31
0.0
  0
TEXT
  5
14E
330
1F
100
AcDbEntity
  8
A
  6
FIN
 62
     4
100
AcDbText
 10
103.7138833726381
 20
51.2213850690981
 30
0.0
 40
1.163758076088768
  1
-
 50
90.0
 41
1.149999999999999
  7
ARIAL
 72
     4
 11
103.642041554162
 21
51.53268638529061
 31
0.0
100
AcDbText
  0
LINE
  5
14F
330
1F
100
AcDbEntity
  8
A
  6
VIOLET
 62
     6
100
AcDbLine
 10
126.1363592147827
 20
97.08333063125609
 30
0.0
 11
168.1818122863769
 21
97.08333063125609
 31
0.0
  0
TEXT
  5
150
330
1F
100
AcDbEntity
  8
A
  6
FIN
 62
     6
100
AcDbText
 10
151.4652859014398
 20
97.46779855689903
 30
0.0
 40
1.86201292174203
  1
126
 41
0.9200000000000001
  7
ARIAL
 72
     4
 11
153.4617041488154
 21
98.38673876759505
 31
0.0
100
AcDbText
  0
LINE
  5
151
330
1F
100
AcDbEntity
  8
A
  6
VIOLET
 62
     6
100
AcDbLine
 10
206.723477602005
 20
174.1666612625121
 30
0.0
 11
206.723477602005
 21
181.1742367744445
 31
0.0
  0
LINE
  5
152
330
1F
100
AcDbEntity
  8
A
  6
JAUNE
 62
     2
100
AcDbLine
 10
98.10605716705323
 20
58.54166531562804
 30
0.0
 11
98.10605716705323
 21
41.02272653579712
 31
0.0
  0
TEXT
  5
153
330
1F
100
AcDbEntity
  8
A
  6
FIN
 62
     4
100
AcDbText
 10
97.01907776655774
 20
50.98816969576559
 30
0.0
 40
1.163758076088768
  1
+
 50
90.0
 41
1.149999999999999
  7
ARIAL
 72
     4
 11
96.63446604222963
 21
51.53408813295948
 31
0.0
100
AcDbText
  0
LINE
  5
154
330
1F
100
AcDbEntity
  8
A
  6
VIOLET
 62
     6
100
AcDbLine
 10
206.723477602005
 20
188.1818122863769
 30
0.0
 11
206.723477602005
 21
195.1893877983093
 31
0.0
  0
LINE
  5
155
330
1F
100
AcDbEntity
  8
A
  6
VIOLET
 62
     6
100
AcDbLine
 10
98.10605716705323
 20
100.5871183872222
 30
0.0
 11
91.09848165512085
 21
100.5871183872222
 31
0.0
  0
LINE
  5
156
330
1F
100
AcDbEntity
  8
A
  6
VIOLET
 62
     6
100
AcDbLine
 10
105.7636326484451
 20
111.0984816551209
 30
0.0
 11
146.5090857811203
 21
111.0984816551209
 31
0.0
  0
TEXT
  5
157
330
1F
100
AcDbEntity
  8
A
  6
FIN
 62
     6
100
AcDbText
 10
124.1399409674071
 20
111.4829495807637
 30
0.0
 40
1.86201292174203
  1
115
 41
0.9200000000000001
  7
ARIAL
 72
     4
 11
126.1363592147827
 21
112.4018897914597
 31
0.0
100
AcDbText
  0
LINE
  5
158
330
1F
100
AcDbEntity
  8
A
  6
VIOLET
 62
     6
100
AcDbLine
 10
105.1136326789855
 20
111.7484816245804
 30
0.0
 11
105.1136326789855
 21
177.6704490184783
 31
0.0
  0
TEXT
  5
159
330
1F
100
AcDbEntity
  8
A
  6
FIN
 62
     6
100
AcDbText
 10
104.7291647533427
 20
144.1388850621309
 30
0.0
 40
1.86201292174203
  1
115
 50
90.0
 41
0.9200000000000001
  7
ARIAL
 72
     4
 11
103.8102245426467
 21
146.1353033095065
 31
0.0
100
AcDbText
  0
LINE
  5
15A
330
1F
100
AcDbEntity
  8
A
  6
VIOLET
 62
     6
100
AcDbLine
 10
273.2954449653626
 20
198.043175584816
 30
0.0
 11
273.2954449653626
 21
118.1060571670532
 31
0.0
  0
TEXT
  5
15B
330
1F
100
AcDbEntity
  8
A
  6
FIN
 62
     6
100
AcDbText
 10
272.9109703567747
 20
154.6463989538328
 30
0.0
 40
1.86201292174203
  1
125
 50
90.0
 41
0.9200000000000001
  7
ARIAL
 72
     4
 11
271.9920301460788
 21
156.6428172012084
 31
0.0
100
AcDbText
  0
LINE
  5
15C
330
1F
100
AcDbEntity
  8
A
  6
VIOLET
 62
     6
100
AcDbLine
 10
273.9454449348221
 20
198.6931755542755
 30
0.0
 11
283.8068082332611
 21
198.6931755542755
 31
0.0
  0
TEXT
  5
15D
330
1F
100
AcDbEntity
  8
A
  6
FIN
 62
     6
100
AcDbText
 10
276.5547083519362
 20
199.0776568458079
 30
0.0
 40
1.86201292174203
  1
125
 41
0.9200000000000001
  7
ARIAL
 72
     4
 11
278.5511265993118
 21
199.9965970565039
 31
0.0
100
AcDbText
  0
LINE
  5
15E
330
1F
100
AcDbEntity
  8
A
  6
VIOLET
 62
     6
100
AcDbLine
 10
140.1515102386474
 20
139.7787836723099
 30
0.0
 11
140.1515102386474
 21
146.1363592147827
 31
0.0
  0
LINE
  5
15F
330
1F
100
AcDbEntity
  8
B
  6
MOYEN
 62
     4
100
AcDbLine
 10
193.9424743652344
 20
136.1101837158202
 30
0.0
 11
179.2265624999999
 21
136.1101837158202
 31
0.0
  0
LINE
  5
161
330
1F
100
AcDbEntity
  8
B
  6
MOYEN
 62
     4
100
AcDbLine
 10
218.0164031982422
 20
136.0646209716797
 30
0.0
 11
203.3004913330078
 21
136.0646209716797
 31
0.0
  0
LWPOLYLINE
  5
162
330
1F
100
AcDbEntity
  8
B
  6
AXES
 62
     3
100
AcDbPolyline
 90
        5
 70
     0
 43
0.0
 10
168.1818084716796
 20
184.6780242919921
 10
249.4697113037108
 20
184.6780242919921
 10
249.4697113037108
 20
128.6174163818359
 10
168.1818084716796
 20
128.6174163818359
 10
168.1818084716796
 20
184.6780242919921
  0
LINE
  5
169
330
1F
100
AcDbEntity
  8
B
  6
MOYEN
 62
     4
100
AcDbLine
 10
206.7234802246094
 20
178.3712158203124
 30
0.0
 11
192.007568359375
 21
178.3712158203124
 31
0.0
  0
LINE
  5
16A
330
1F
100
AcDbEntity
  8
B
  6
MOYEN
 62
     4
100
AcDbLine
 10
140.8522644042968
 20
127.2159042358397
 30
0.0
 11
133.8446960449219
 21
127.2159042358397
 31
0.0
  0
LINE
  5
16B
330
1F
100
AcDbEntity
  8
B
  6
POINT
 62
     3
100
AcDbLine
 10
199.7158966064453
 20
184.6780242919921
 30
0.0
 11
207.4242401123046
 21
184.6780242919921
 31
0.0
  0
LINE
  5
16C
330
1F
100
AcDbEntity
  8
B
  6
POINT
 62
     3
100
AcDbLine
 10
182.1969604492188
 20
128.6174163818359
 30
0.0
 11
213.7310485839844
 21
128.6174163818359
 31
0.0
  0
LINE
  5
16D
330
1F
100
AcDbEntity
  8
B
  6
POINT
 62
     3
100
AcDbLine
 10
133.1439361572265
 20
167.1590881347656
 30
0.0
 11
161.1742401123047
 21
167.1590881347656
 31
0.0
  0
LINE
  5
16E
330
1F
100
AcDbEntity
  8
B
  6
MOYEN
 62
     4
100
AcDbLine
 10
163.2765197753905
 20
127.2159042358397
 30
0.0
 11
154.1666564941406
 21
127.2159042358397
 31
0.0
  0
LINE
  5
16F
330
1F
100
AcDbEntity
  8
B
  6
MOYEN
 62
     4
100
AcDbLine
 10
163.2765197753905
 20
158.9251861572265
 30
0.0
 11
154.8674316406249
 21
158.9251861572265
 31
0.0
  0
LINE
  5
170
330
1F
100
AcDbEntity
  8
B
  6
MOYEN
 62
     4
100
AcDbLine
 10
140.1515045166015
 20
159.4507446289063
 30
0.0
 11
122.6325683593749
 21
159.4507446289063
 31
0.0
  0
INSERT
  5
17D
330
1F
100
AcDbEntity
  8
B
  6
FIN
 62
     0
100
AcDbBlockReference
 66
     1
  2
004C0_000_0_3_1
 10
10.51136326789856
 20
37.51893877983092
 30
0.0
  0
ATTRIB
  5
17E
330
17D
100
AcDbEntity
  8
B
  6
FIN
 62
     1
100
AcDbText
 10
12.26325714588165
 20
38.80658044600126
 30
0.0
 40
1.629261306524276
  1
-
 41
0.9200000000000001
  7
ARIAL
 11
12.26325714588165
 21
39.6212110992634
 31
0.0
100
AcDbAttribute
  2
$NUM_EQUI
 70
     1
 74
     2
  0
ATTRIB
  5
17F
330
17D
100
AcDbEntity
  8
B
  6
FIN
 62
     3
100
AcDbText
 10
5.849305278641952
 20
37.23798243416339
 30
0.0
 40
1.280133883697645
  1
3
 41
0.9200000000000001
  7
ARIAL
 72
     4
 11
6.306817793665516
 21
37.86931722128031
 31
0.0
100
AcDbAttribute
  2
$REPERE
 70
     1
 74
     2
  0
ATTRIB
  5
180
330
17D
100
AcDbEntity
  8
B
  6
FIN
 62
     1
100
AcDbText
 10
5.010719379371487
 20
37.23756754599735
 30
0.0
 40
1.280133883697645
  1
1-16
 41
0.9200000000000001
  7
ARIAL
 72
     4
 11
6.657202082691582
 21
37.86933894085086
 31
0.0
100
AcDbAttribute
  2
$REFTEAB00
 70
     0
 74
     2
  0
SEQEND
  5
182
330
17D
100
AcDbEntity
  8
B
  6
FIN
 62
     0
  0
INSERT
  5
181
330
1F
100
AcDbEntity
  8
B
  6
FIN
 62
     0
100
AcDbBlockReference
 66
     1
  2
004C0_000_0_3_1
 10
10.51136326789856
 20
41.02272653579712
 30
0.0
  0
ATTRIB
  5
183
330
181
100
AcDbEntity
  8
B
  6
FIN
 62
     1
100
AcDbText
 10
12.26325714588165
 20
42.31036820196746
 30
0.0
 40
1.629261306524276
  1
+
 41
0.9200000000000001
  7
ARIAL
 11
12.26325714588165
 21
43.12499885522959
 31
0.0
100
AcDbAttribute
  2
$NUM_EQUI
 70
     1
 74
     2
  0
ATTRIB
  5
184
330
181
100
AcDbEntity
  8
B
  6
FIN
 62
     3
100
AcDbText
 10
5.849305278641952
 20
40.7304183889781
 30
0.0
 40
1.280133883697645
  1
2
 41
0.9200000000000001
  7
ARIAL
 72
     4
 11
6.306817793665516
 21
41.3731049772465
 31
0.0
100
AcDbAttribute
  2
$REPERE
 70
     1
 74
     2
  0
ATTRIB
  5
185
330
181
100
AcDbEntity
  8
B
  6
FIN
 62
     1
100
AcDbText
 10
5.010719379371487
 20
40.74135530196353
 30
0.0
 40
1.280133883697645
  1
1-15
 41
0.9200000000000001
  7
ARIAL
 72
     4
 11
6.657202082691582
 21
41.37312669681704
 31
0.0
100
AcDbAttribute
  2
$REFTEAB00
 70
     0
 74
     2
  0
SEQEND
  5
1AF
330
181
100
AcDbEntity
  8
B
  6
FIN
 62
     0
  0
INSERT
  5
1AE
330
1F
100
AcDbEntity
  8
B
  6
FIN
 62
     0
100
AcDbBlockReference
 66
     1
  2
_I443_KNX_0_3_1
 10
17.51893877983093
 20
58.54166531562804
 30
0.0
  0
ATTRIB
  5
1B0
330
1AE
100
AcDbEntity
  8
B
  6
FIN
 62
     3
100
AcDbText
 10
9.522428183971253
 20
89.02837285084382
 30
0.0
 40
2.094764536959783
  1
U7
 41
0.9200000000000001
  7
ARIAL
 72
     2
 11
12.9640148641485
 21
90.07575511932371
 31
0.0
100
AcDbAttribute
  2
$ETIQUETTE
 70
     0
 74
     2
  0
ATTRIB
  5
1B1
330
1AE
100
AcDbEntity
  8
B
  6
FIN
 62
     1
100
AcDbText
 10
16.95118360514928
 20
61.1950844007269
 30
0.0
 40
1.512885498915399
  1
+
 41
0.9200000000000001
  7
ARIAL
 72
     4
 11
17.51893877983093
 21
61.69507964235345
 31
0.0
100
AcDbAttribute
  2
$PL:1
 70
     0
 74
     2
  0
ATTRIB
  5
1B2
330
1AE
100
AcDbEntity
  8
B
  6
FIN
 62
     1
100
AcDbText
 10
24.2027609229231
 20
61.60168527833445
 30
0.0
 40
1.512885498915399
  1
-
 41
0.9200000000000001
  7
ARIAL
 72
     4
 11
24.52651429176331
 21
61.69507964235345
 31
0.0
100
AcDbAttribute
  2
$PL:2
 70
     0
 74
     2
  0
ATTRIB
  5
1B3
330
1AE
100
AcDbEntity
  8
B
  6
FIN
 62
     1
100
AcDbText
 10
15.70894368793924
 20
89.26113783195116
 30
0.0
 40
1.629261306524276
  1
5WG13171-5EY01
 41
0.9200000000000001
  7
ARIAL
 72
     2
 11
33.28598368167876
 21
90.07576848521329
 31
0.0
100
AcDbAttribute
  2
CODE
 70
     0
 74
     2
  0
ATTRIB
  5
1B4
330
1AE
100
AcDbEntity
  8
B
  6
FIN
 62
     1
100
AcDbText
 10
-2.475278104287069
 20
64.38423674505751
 30
0.0
 40
1.629261306524276
  1
@I443.@IM
 41
0.9200000000000001
  7
ARIAL
 72
     2
 11
8.759467719179269
 21
65.19886739831965
 31
0.0
100
AcDbAttribute
  2
SYMBOLE
 70
     1
 74
     2
  0
SEQEND
  5
1EC
330
1AE
100
AcDbEntity
  8
B
  6
FIN
 62
     0
  0
INSERT
  5
1EB
330
1F
100
AcDbEntity
  8
B
  6
FIN
 62
     0
100
AcDbBlockReference
 66
     1
  2
_I449_KNX_0_3_1
 10
56.06060409545897
 20
86.57196736335754
 30
0.0
  0
ATTRIB
  5
1ED
330
1EB
100
AcDbEntity
  8
B
  6
FIN
 62
     3
100
AcDbText
 10
40.35575692792767
 20
89.02837285084382
 30
0.0
 40
2.094764536959783
  1
U4
 41
0.9200000000000001
  7
ARIAL
 72
     2
 11
43.79734360810493
 21
90.07575511932371
 31
0.0
100
AcDbAttribute
  2
$ETIQUETTE
 70
     0
 74
     2
  0
ATTRIB
  5
1EE
330
1EB
100
AcDbEntity
  8
B
  6
FIN
 62
     1
100
AcDbText
 10
48.48527340884496
 20
61.19507771778211
 30
0.0
 40
1.512885498915399
  1
+
 41
0.9200000000000001
  7
ARIAL
 72
     4
 11
49.05302858352661
 21
61.69507295940865
 31
0.0
100
AcDbAttribute
  2
$PL:1
 70
     0
 74
     2
  0
ATTRIB
  5
1EF
330
1EB
100
AcDbEntity
  8
B
  6
FIN
 62
     1
100
AcDbText
 10
55.73685072661877
 20
61.60167859538966
 30
0.0
 40
1.512885498915399
  1
-
 41
0.9200000000000001
  7
ARIAL
 72
     4
 11
56.06060409545897
 21
61.69507295940865
 31
0.0
100
AcDbAttribute
  2
$PL:2
 70
     0
 74
     2
  0
ATTRIB
  5
1F0
330
1EB
100
AcDbEntity
  8
B
  6
FIN
 62
     1
100
AcDbText
 10
62.5004244327097
 20
61.19507771778211
 30
0.0
 40
1.512885498915399
  1
+
 41
0.9200000000000001
  7
ARIAL
 72
     4
 11
63.06817960739135
 21
61.69507295940865
 31
0.0
100
AcDbAttribute
  2
$PL:3
 70
     0
 74
     2
  0
ATTRIB
  5
1F1
330
1EB
100
AcDbEntity
  8
B
  6
FIN
 62
     1
100
AcDbText
 10
69.75200175048353
 20
61.60167859538966
 30
0.0
 40
1.512885498915399
  1
-
 41
0.9200000000000001
  7
ARIAL
 72
     4
 11
70.07575511932373
 21
61.69507295940865
 31
0.0
100
AcDbAttribute
  2
$PL:4
 70
     0
 74
     2
  0
ATTRIB
  5
1F2
330
1EB
100
AcDbEntity
  8
B
  6
FIN
 62
     1
100
AcDbText
 10
54.0615931919603
 20
79.15832253120824
 30
0.0
 40
1.512885498915399
  1
USB
 41
0.9200000000000001
  7
ARIAL
 72
     4
 11
56.06060409545897
 21
79.91476528066595
 31
0.0
100
AcDbAttribute
  2
$PL:5
 70
     0
 74
     2
  0
ATTRIB
  5
1F3
330
1EB
100
AcDbEntity
  8
B
  6
FIN
 62
     1
100
AcDbText
 10
47.00609703680648
 20
89.26112446606158
 30
0.0
 40
1.629261306524276
  1
5WG1148-1AB11
 41
0.9200000000000001
  7
ARIAL
 72
     2
 11
63.41855971957693
 21
90.07575511932371
 31
0.0
100
AcDbAttribute
  2
CODE
 70
     0
 74
     2
  0
ATTRIB
  5
1F4
330
1EB
100
AcDbEntity
  8
B
  6
FIN
 62
     1
100
AcDbText
 10
44.18295451762111
 20
74.19483310564011
 30
0.0
 40
1.629261306524276
  1
SIEMENS
 41
0.9200000000000001
  7
ARIAL
 72
     2
 11
53.60795333457713
 21
75.00946375890226
 31
0.0
100
AcDbAttribute
  2
FABRICANT
 70
     0
 74
     2
  0
ATTRIB
  5
1F5
330
1EB
100
AcDbEntity
  8
B
  6
FIN
 62
     1
100
AcDbText
 10
29.82157218125721
 20
61.93158264270326
 30
0.0
 40
1.629261306524276
  1
INSTABUS
 41
0.9200000000000001
  7
ARIAL
 72
     2
 11
40.29356587655593
 21
62.7462132959654
 31
0.0
100
AcDbAttribute
  2
SERIE
 70
     1
 74
     2
  0
ATTRIB
  5
1F6
330
1EB
100
AcDbEntity
  8
B
  6
FIN
 62
     1
100
AcDbText
 10
29.05881337014481
 20
64.38423674505751
 30
0.0
 40
1.629261306524276
  1
@I449.@IM
 41
0.9200000000000001
  7
ARIAL
 72
     2
 11
40.29355919361115
 21
65.19886739831965
 31
0.0
100
AcDbAttribute
  2
SYMBOLE
 70
     1
 74
     2
  0
SEQEND
  5
203
330
1EB
100
AcDbEntity
  8
B
  6
FIN
 62
     0
  0
INSERT
  5
202
330
1F
100
AcDbEntity
  8
B
  6
FIN
 62
     0
100
AcDbBlockReference
 66
     1
  2
018C0_001_0_3_1
 10
56.06060409545897
 20
191.6856000423431
 30
0.0
  0
ATTRIB
  5
204
330
202
100
AcDbEntity
  8
B
  6
FIN
 62
     3
100
AcDbText
 10
50.92842194192581
 20
191.2213428183217
 30
0.0
 40
1.629261306524276
  1
14
 41
0.9200000000000001
  7
ARIAL
 72
     2
 11
53.25757656386396
 21
192.0359734715838
 31
0.0
100
AcDbAttribute
  2
$REPERE
 70
     1
 74
     2
  0
ATTRIB
  5
205
330
202
100
AcDbEntity
  8
B
  6
FIN
 62
     1
100
AcDbText
 10
49.53034676928345
 20
191.2213695501009
 30
0.0
 40
1.629261306524276
  1
1-5
 41
0.9200000000000001
  7
ARIAL
 72
     2
 11
52.55681633949279
 21
192.036000203363
 31
0.0
100
AcDbAttribute
  2
$REFTEAB00
 70
     0
 74
     2
  0
SEQEND
  5
213
330
202
100
AcDbEntity
  8
B
  6
FIN
 62
     0
  0
INSERT
  5
212
330
1F
100
AcDbEntity
  8
B
  6
FIN
 62
     0
100
AcDbBlockReference
 66
     1
  2
006C0_001_0_3_1
 10
56.06060409545897
 20
198.6931755542755
 30
0.0
  0
ATTRIB
  5
214
330
212
100
AcDbEntity
  8
B
  6
FIN
 62
     3
100
AcDbText
 10
50.92842194192581
 20
198.2289183302541
 30
0.0
 40
1.629261306524276
  1
17
 41
0.9200000000000001
  7
ARIAL
 72
     2
 11
53.25757656386396
 21
199.0435489835163
 31
0.0
100
AcDbAttribute
  2
$REPERE
 70
     1
 74
     2
  0
ATTRIB
  5
215
330
212
100
AcDbEntity
  8
B
  6
FIN
 62
     1
100
AcDbText
 10
48.36576945831438
 20
198.2289450620333
 30
0.0
 40
1.629261306524276
  1
1-19
 41
0.9200000000000001
  7
ARIAL
 72
     2
 11
52.55681633949279
 21
199.0435757152954
 31
0.0
100
AcDbAttribute
  2
$REFTEAB00
 70
     0
 74
     2
  0
SEQEND
  5
26D
330
212
100
AcDbEntity
  8
B
  6
FIN
 62
     0
  0
INSERT
  5
26C
330
1F
100
AcDbEntity
  8
B
  6
FIN
 62
     0
100
AcDbBlockReference
 66
     1
  2
_I450_KNX_0_3_1
 10
98.10605716705323
 20
86.57196736335754
 30
0.0
  0
ATTRIB
  5
26E
330
26C
100
AcDbEntity
  8
B
  6
FIN
 62
     3
100
AcDbText
 10
92.91257660889288
 20
70.10792030521539
 30
0.0
 40
2.094764536959783
  1
U9
 41
0.9200000000000001
  7
ARIAL
 72
     2
 11
96.35416328907012
 21
71.15530257369528
 31
0.0
100
AcDbAttribute
  2
$ETIQUETTE
 70
     0
 74
     2
  0
ATTRIB
  5
26F
330
26C
100
AcDbEntity
  8
B
  6
FIN
 62
     1
100
AcDbText
 10
97.56536055838902
 20
83.3628705115456
 30
0.0
 40
1.512885498915399
  1
L
 41
0.9200000000000001
  7
ARIAL
 72
     4
 11
98.10605716705323
 21
84.11931326100329
 31
0.0
100
AcDbAttribute
  2
$PL:1
 70
     0
 74
     2
  0
ATTRIB
  5
270
330
26C
100
AcDbEntity
  8
B
  6
FIN
 62
     1
100
AcDbText
 10
188.5024402407742
 20
83.3628705115456
 30
0.0
 40
1.512885498915399
  1
N
 41
0.9200000000000001
  7
ARIAL
 72
     4
 11
189.204538822174
 21
84.11931326100329
 31
0.0
100
AcDbAttribute
  2
$PL:10
 70
     0
 74
     2
  0
ATTRIB
  5
271
330
26C
100
AcDbEntity
  8
B
  6
FIN
 62
     1
100
AcDbText
 10
202.5712336849893
 20
83.3628705115456
 30
0.0
 40
1.512885498915399
  1
E
 41
0.9200000000000001
  7
ARIAL
 72
     4
 11
203.2196898460388
 21
84.11931326100329
 31
0.0
100
AcDbAttribute
  2
$PL:11
 70
     0
 74
     2
  0
ATTRIB
  5
272
330
26C
100
AcDbEntity
  8
B
  6
FIN
 62
     1
100
AcDbText
 10
209.5251667765714
 20
83.3628705115456
 30
0.0
 40
1.512885498915399
  1
N
 41
0.9200000000000001
  7
ARIAL
 72
     4
 11
210.2272653579711
 21
84.11931326100329
 31
0.0
100
AcDbAttribute
  2
$PL:12
 70
     0
 74
     2
  0
ATTRIB
  5
273
330
26C
100
AcDbEntity
  8
B
  6
FIN
 62
     1
100
AcDbText
 10
223.6485520645058
 20
83.3628705115456
 30
0.0
 40
1.512885498915399
  1
F
 41
0.9200000000000001
  7
ARIAL
 72
     4
 11
224.2424163818359
 21
84.11931326100329
 31
0.0
100
AcDbAttribute
  2
$PL:13
 70
     0
 74
     2
  0
ATTRIB
  5
274
330
26C
100
AcDbEntity
  8
B
  6
FIN
 62
     1
100
AcDbText
 10
230.5478933123684
 20
83.3628705115456
 30
0.0
 40
1.512885498915399
  1
N
 41
0.9200000000000001
  7
ARIAL
 72
     4
 11
231.2499918937683
 21
84.11931326100329
 31
0.0
100
AcDbAttribute
  2
$PL:14
 70
     0
 74
     2
  0
ATTRIB
  5
275
330
26C
100
AcDbEntity
  8
B
  6
FIN
 62
     1
100
AcDbText
 10
244.5089272041984
 20
83.3628705115456
 30
0.0
 40
1.512885498915399
  1
G
 41
0.9200000000000001
  7
ARIAL
 72
     4
 11
245.265142917633
 21
84.11931326100329
 31
0.0
100
AcDbAttribute
  2
$PL:15
 70
     0
 74
     2
  0
ATTRIB
  5
276
330
26C
100
AcDbEntity
  8
B
  6
FIN
 62
     1
100
AcDbText
 10
251.5706198481655
 20
83.3628705115456
 30
0.0
 40
1.512885498915399
  1
N
 41
0.9200000000000001
  7
ARIAL
 72
     4
 11
252.2727184295654
 21
84.11931326100329
 31
0.0
100
AcDbAttribute
  2
$PL:16
 70
     0
 74
     2
  0
ATTRIB
  5
277
330
26C
100
AcDbEntity
  8
B
  6
FIN
 62
     1
100
AcDbText
 10
265.5857708720303
 20
83.3628705115456
 30
0.0
 40
1.512885498915399
  1
H
 41
0.9200000000000001
  7
ARIAL
 72
     4
 11
266.2878694534301
 21
84.11931326100329
 31
0.0
100
AcDbAttribute
  2
$PL:17
 70
     0
 74
     2
  0
ATTRIB
  5
278
330
26C
100
AcDbEntity
  8
B
  6
FIN
 62
     1
100
AcDbText
 10
272.5933463839627
 20
83.3628705115456
 30
0.0
 40
1.512885498915399
  1
N
 41
0.9200000000000001
  7
ARIAL
 72
     4
 11
273.2954449653626
 21
84.11931326100329
 31
0.0
100
AcDbAttribute
  2
$PL:18
 70
     0
 74
     2
  0
ATTRIB
  5
279
330
26C
100
AcDbEntity
  8
B
  6
FIN
 62
     1
100
AcDbText
 10
104.4115340975858
 20
83.3628705115456
 30
0.0
 40
1.512885498915399
  1
N
 41
0.9200000000000001
  7
ARIAL
 72
     4
 11
105.1136326789855
 21
84.11931326100329
 31
0.0
100
AcDbAttribute
  2
$PL:2
 70
     0
 74
     2
  0
ATTRIB
  5
27A
330
26C
100
AcDbEntity
  8
B
  6
FIN
 62
     1
100
AcDbText
 10
97.53830199237157
 20
61.19507771778211
 30
0.0
 40
1.512885498915399
  1
+
 41
0.9200000000000001
  7
ARIAL
 72
     4
 11
98.10605716705323
 21
61.69507295940865
 31
0.0
100
AcDbAttribute
  2
$PL:25
 70
     0
 74
     2
  0
ATTRIB
  5
27B
330
26C
100
AcDbEntity
  8
B
  6
FIN
 62
     1
100
AcDbText
 10
104.7898793101454
 20
61.60167859538966
 30
0.0
 40
1.512885498915399
  1
-
 41
0.9200000000000001
  7
ARIAL
 72
     4
 11
105.1136326789855
 21
61.69507295940865
 31
0.0
100
AcDbAttribute
  2
$PL:26
 70
     0
 74
     2
  0
ATTRIB
  5
27C
330
26C
100
AcDbEntity
  8
B
  6
FIN
 62
     1
100
AcDbText
 10
111.5534530162363
 20
61.19507771778211
 30
0.0
 40
1.512885498915399
  1
+
 41
0.9200000000000001
  7
ARIAL
 72
     4
 11
112.121208190918
 21
61.69507295940865
 31
0.0
100
AcDbAttribute
  2
$PL:27
 70
     0
 74
     2
  0
ATTRIB
  5
27D
330
26C
100
AcDbEntity
  8
B
  6
FIN
 62
     1
100
AcDbText
 10
118.8050303340101
 20
61.60167859538966
 30
0.0
 40
1.512885498915399
  1
-
 41
0.9200000000000001
  7
ARIAL
 72
     4
 11
119.1287837028502
 21
61.69507295940865
 31
0.0
100
AcDbAttribute
  2
$PL:28
 70
     0
 74
     2
  0
ATTRIB
  5
27E
330
26C
100
AcDbEntity
  8
B
  6
FIN
 62
     1
100
AcDbText
 10
118.4803275418008
 20
83.3628705115456
 30
0.0
 40
1.512885498915399
  1
A
 41
0.9200000000000001
  7
ARIAL
 72
     4
 11
119.1287837028502
 21
84.11931326100329
 31
0.0
100
AcDbAttribute
  2
$PL:3
 70
     0
 74
     2
  0
ATTRIB
  5
27F
330
26C
100
AcDbEntity
  8
B
  6
FIN
 62
     1
100
AcDbText
 10
125.4342606333828
 20
83.3628705115456
 30
0.0
 40
1.512885498915399
  1
N
 41
0.9200000000000001
  7
ARIAL
 72
     4
 11
126.1363592147827
 21
84.11931326100329
 31
0.0
100
AcDbAttribute
  2
$PL:4
 70
     0
 74
     2
  0
ATTRIB
  5
280
330
26C
100
AcDbEntity
  8
B
  6
FIN
 62
     1
100
AcDbText
 10
139.503054077598
 20
83.3628705115456
 30
0.0
 40
1.512885498915399
  1
B
 41
0.9200000000000001
  7
ARIAL
 72
     4
 11
140.1515102386474
 21
84.11931326100329
 31
0.0
100
AcDbAttribute
  2
$PL:5
 70
     0
 74
     2
  0
ATTRIB
  5
281
330
26C
100
AcDbEntity
  8
B
  6
FIN
 62
     1
100
AcDbText
 10
146.45698716918
 20
83.3628705115456
 30
0.0
 40
1.512885498915399
  1
N
 41
0.9200000000000001
  7
ARIAL
 72
     4
 11
147.1590857505798
 21
84.11931326100329
 31
0.0
100
AcDbAttribute
  2
$PL:6
 70
     0
 74
     2
  0
ATTRIB
  5
282
330
26C
100
AcDbEntity
  8
B
  6
FIN
 62
     1
100
AcDbText
 10
160.4721381930447
 20
83.3628705115456
 30
0.0
 40
1.512885498915399
  1
C
 41
0.9200000000000001
  7
ARIAL
 72
     4
 11
161.1742367744446
 21
84.11931326100329
 31
0.0
100
AcDbAttribute
  2
$PL:7
 70
     0
 74
     2
  0
ATTRIB
  5
283
330
26C
100
AcDbEntity
  8
B
  6
FIN
 62
     1
100
AcDbText
 10
167.4797137049771
 20
83.3628705115456
 30
0.0
 40
1.512885498915399
  1
N
 41
0.9200000000000001
  7
ARIAL
 72
     4
 11
168.1818122863769
 21
84.11931326100329
 31
0.0
100
AcDbAttribute
  2
$PL:8
 70
     0
 74
     2
  0
ATTRIB
  5
284
330
26C
100
AcDbEntity
  8
B
  6
FIN
 62
     1
100
AcDbText
 10
181.4948647288418
 20
83.3628705115456
 30
0.0
 40
1.512885498915399
  1
D
 41
0.9200000000000001
  7
ARIAL
 72
     4
 11
182.1969633102417
 21
84.11931326100329
 31
0.0
100
AcDbAttribute
  2
$PL:9
 70
     0
 74
     2
  0
ATTRIB
  5
285
330
26C
100
AcDbEntity
  8
B
  6
FIN
 62
     1
100
AcDbText
 10
107.9720026540291
 20
73.84446301787171
 30
0.0
 40
1.629261306524276
  1
5WG1263-1EB01
 41
0.9200000000000001
  7
ARIAL
 72
     2
 11
124.3844653367996
 21
74.65909367113386
 31
0.0
100
AcDbAttribute
  2
CODE
 70
     0
 74
     2
  0
ATTRIB
  5
286
330
26C
100
AcDbEntity
  8
B
  6
FIN
 62
     1
100
AcDbText
 10
93.93673998404649
 20
73.49408290568614
 30
0.0
 40
1.629261306524276
  1
SIEMENS
 41
0.9200000000000001
  7
ARIAL
 72
     2
 11
103.3617388010025
 21
74.30871355894828
 31
0.0
100
AcDbAttribute
  2
FABRICANT
 70
     0
 74
     2
  0
ATTRIB
  5
287
330
26C
100
AcDbEntity
  8
B
  6
FIN
 62
     1
100
AcDbText
 10
78.87460076478385
 20
61.93158264270326
 30
0.0
 40
1.629261306524276
  1
INSTABUS
 41
0.9200000000000001
  7
ARIAL
 72
     2
 11
89.34659446008256
 21
62.7462132959654
 31
0.0
100
AcDbAttribute
  2
SERIE
 70
     1
 74
     2
  0
ATTRIB
  5
288
330
26C
100
AcDbEntity
  8
B
  6
FIN
 62
     1
100
AcDbText
 10
78.11184195367141
 20
64.38423674505751
 30
0.0
 40
1.629261306524276
  1
@I450.@IM
 41
0.9200000000000001
  7
ARIAL
 72
     2
 11
89.34658777713776
 21
65.19886739831965
 31
0.0
100
AcDbAttribute
  2
SYMBOLE
 70
     1
 74
     2
  0
SEQEND
  5
28A
330
26C
100
AcDbEntity
  8
B
  6
FIN
 62
     0
  0
INSERT
  5
289
330
1F
100
AcDbEntity
  8
B
  6
FIN
 62
     0
100
AcDbBlockReference
 66
     1
  2
018C0_001_0_3_1
 10
98.10605716705323
 20
111.0984816551209
 30
0.0
  0
ATTRIB
  5
28B
330
289
100
AcDbEntity
  8
B
  6
FIN
 62
     3
100
AcDbText
 10
92.97387501352005
 20
110.6342244310994
 30
0.0
 40
1.629261306524276
  1
13
 41
0.9200000000000001
  7
ARIAL
 72
     2
 11
95.30302963545819
 21
111.4488550843615
 31
0.0
100
AcDbAttribute
  2
$REPERE
 70
     1
 74
     2
  0
ATTRIB
  5
28C
330
289
100
AcDbEntity
  8
B
  6
FIN
 62
     1
100
AcDbText
 10
92.27656006524885
 20
110.6342511628786
 30
0.0
 40
1.629261306524276
  1
1-4
 41
0.9200000000000001
  7
ARIAL
 72
     2
 11
95.30302963545819
 21
111.4488818161408
 31
0.0
100
AcDbAttribute
  2
$REFTEAB00
 70
     0
 74
     2
  0
SEQEND
  5
2D6
330
289
100
AcDbEntity
  8
B
  6
FIN
 62
     0
  0
INSERT
  5
2D5
330
1F
100
AcDbEntity
  8
B
  6
FIN
 62
     0
100
AcDbBlockReference
 66
     1
  2
X12C0_X01_0_3_1
 10
119.1287837028502
 20
104.0909061431884
 30
0.0
  0
ATTRIB
  5
2D7
330
2D5
100
AcDbEntity
  8
B
  6
FIN
 62
     3
100
AcDbText
 10
120.5303041515927
 20
105.6125537846716
 30
0.0
 40
1.86201292174203
  1
13
 41
0.9200000000000001
  7
ARIAL
 11
120.5303041515927
 21
106.5435602455427
 31
0.0
100
AcDbAttribute
  2
$BORNE
 70
     0
 74
     2
  0
ATTRIB
  5
2D8
330
2D5
100
AcDbEntity
  8
B
  6
FIN
 62
     3
100
AcDbText
 10
114.8001179748128
 20
105.6125537846716
 30
0.0
 40
1.86201292174203
  1
X2
 41
0.9200000000000001
  7
ARIAL
 72
     2
 11
117.727263254108
 21
106.5435602455427
 31
0.0
100
AcDbAttribute
  2
$NOMCOMP
 70
     0
 74
     2
  0
SEQEND
  5
2DA
330
2D5
100
AcDbEntity
  8
B
  6
FIN
 62
     0
  0
INSERT
  5
2D9
330
1F
100
AcDbEntity
  8
B
  6
FIN
 62
     0
100
AcDbBlockReference
 66
     1
  2
006C0_001_0_3_1
 10
122.6325714588165
 20
97.08333063125609
 30
0.0
  0
ATTRIB
  5
2DB
330
2D9
100
AcDbEntity
  8
B
  6
FIN
 62
     3
100
AcDbText
 10
117.5003893052833
 20
96.61908009017956
 30
0.0
 40
1.629261306524276
  1
18
 41
0.9200000000000001
  7
ARIAL
 72
     2
 11
119.8295439272215
 21
97.43371074344169
 31
0.0
100
AcDbAttribute
  2
$REPERE
 70
     1
 74
     2
  0
ATTRIB
  5
2DC
330
2D9
100
AcDbEntity
  8
B
  6
FIN
 62
     1
100
AcDbText
 10
120.5437918848619
 20
99.42212767060896
 30
0.0
 40
1.629261306524276
  1
1-19
 41
0.9200000000000001
  7
ARIAL
 72
     2
 11
124.7348387660403
 21
100.2367583238711
 31
0.0
100
AcDbAttribute
  2
$REFTEAB00
 70
     0
 74
     2
  0
SEQEND
  5
2DE
330
2D9
100
AcDbEntity
  8
B
  6
FIN
 62
     0
  0
INSERT
  5
2DD
330
1F
100
AcDbEntity
  8
B
  6
FIN
 62
     0
100
AcDbBlockReference
 66
     1
  2
X12C0_X01_0_3_1
 10
126.1363592147827
 20
93.57954287528992
 30
0.0
  0
ATTRIB
  5
2DF
330
2DD
100
AcDbEntity
  8
B
  6
FIN
 62
     3
100
AcDbText
 10
127.537879663525
 20
95.10119051677314
 30
0.0
 40
1.86201292174203
  1
10
 41
0.9200000000000001
  7
ARIAL
 11
127.537879663525
 21
96.03219697764416
 31
0.0
100
AcDbAttribute
  2
$BORNE
 70
     0
 74
     2
  0
ATTRIB
  5
2E0
330
2DD
100
AcDbEntity
  8
B
  6
FIN
 62
     3
100
AcDbText
 10
121.8076934867452
 20
95.10119051677314
 30
0.0
 40
1.86201292174203
  1
X2
 41
0.9200000000000001
  7
ARIAL
 72
     2
 11
124.7348387660403
 21
96.03219697764416
 31
0.0
100
AcDbAttribute
  2
$NOMCOMP
 70
     0
 74
     2
  0
SEQEND
  5
2F0
330
2DD
100
AcDbEntity
  8
B
  6
FIN
 62
     0
  0
INSERT
  5
2EF
330
1F
100
AcDbEntity
  8
B
  6
FIN
 62
     0
100
AcDbBlockReference
 66
     1
  2
S01C0N_S01_0_3_1
 10
133.143934726715
 20
153.143934726715
 30
0.0
  0
ATTRIB
  5
2F1
330
2EF
100
AcDbEntity
  8
B
  6
FIN
 62
     3
100
AcDbText
 10
118.6387727952383
 20
158.7537411750372
 30
0.0
 40
2.094764536959783
  1
S3
 41
0.9200000000000001
  7
ARIAL
 72
     2
 11
121.9318112344454
 21
159.8011234435171
 31
0.0
100
AcDbAttribute
  2
$NOMCOMP
 70
     1
 74
     2
  0
ATTRIB
  5
2F2
330
2EF
100
AcDbEntity
  8
B
  6
FIN
 62
     1
100
AcDbText
 10
123.1098896445733
 20
146.0225021517812
 30
0.0
 40
1.629261306524276
  1
2-9
 41
0.9200000000000001
  7
ARIAL
 72
     2
 11
126.1363592147827
 21
146.8371328050434
 31
0.0
100
AcDbAttribute
  2
$REFCRO
 70
     0
 74
     2
  0
SEQEND
  5
310
330
2EF
100
AcDbEntity
  8
B
  6
FIN
 62
     0
  0
INSERT
  5
30F
330
1F
100
AcDbEntity
  8
B
  6
FIN
 62
     0
100
AcDbBlockReference
 66
     1
  2
S07C0N_S01_0_3_1
 10
133.143934726715
 20
149.6401469707488
 30
0.0
  0
ATTRIB
  5
311
330
30F
100
AcDbEntity
  8
B
  6
FIN
 62
     4
100
AcDbText
 10
126.7627538728523
 20
151.2829441726248
 30
0.0
 40
0.9310064608710153
  1
0
 41
0.69
  7
ARIAL
 72
     4
 11
127.0123061537743
 21
151.7424142779728
 31
0.0
100
AcDbAttribute
  2
POS_0
 70
     0
 74
     2
  0
ATTRIB
  5
312
330
30F
100
AcDbEntity
  8
B
  6
FIN
 62
     4
100
AcDbText
 10
128.4643467255262
 20
151.2769110475373
 30
0.0
 40
0.9310064608710153
  1
I
 41
0.69
  7
ARIAL
 72
     4
 11
128.5890133171369
 21
151.7424142779728
 31
0.0
100
AcDbAttribute
  2
POS_1
 70
     0
 74
     2
  0
ATTRIB
  5
313
330
30F
100
AcDbEntity
  8
B
  6
FIN
 62
     3
100
AcDbText
 10
121.0914268975925
 20
148.9431381315098
 30
0.0
 40
2.094764536959783
  1
S3
 41
0.9200000000000001
  7
ARIAL
 72
     2
 11
124.3844653367996
 21
149.9905203999897
 31
0.0
100
AcDbAttribute
  2
$NOMCOMP
 70
     0
 74
     2
  0
ATTRIB
  5
314
330
30F
100
AcDbEntity
  8
B
  6
FIN
 62
     1
100
AcDbText
 10
120.7061543459371
 20
140.7668071519425
 30
0.0
 40
1.629261306524276
  1
 2-9
 41
0.9200000000000001
  7
ARIAL
 72
     2
 11
124.3144013436631
 21
141.5814378052046
 31
0.0
100
AcDbAttribute
  2
$REFCRO00
 70
     0
 74
     2
  0
ATTRIB
  5
315
330
30F
100
AcDbEntity
  8
B
  6
FIN
 62
     1
100
AcDbText
 10
119.541577034968
 20
138.3141530495881
 30
0.0
 40
1.629261306524276
  1
 2-10
 41
0.9200000000000001
  7
ARIAL
 72
     2
 11
124.3144013436631
 21
139.1287837028503
 31
0.0
100
AcDbAttribute
  2
$REFCRO01
 70
     0
 74
     2
  0
SEQEND
  5
317
330
30F
100
AcDbEntity
  8
B
  6
FIN
 62
     0
  0
INSERT
  5
316
330
1F
100
AcDbEntity
  8
B
  6
FIN
 62
     0
100
AcDbBlockReference
 66
     1
  2
X12C0_X01_0_3_1
 10
133.143934726715
 20
167.1590857505798
 30
0.0
  0
ATTRIB
  5
318
330
316
100
AcDbEntity
  8
B
  6
FIN
 62
     3
100
AcDbText
 10
134.5454551754573
 20
168.6807333920631
 30
0.0
 40
1.86201292174203
  1
1
 41
0.9200000000000001
  7
ARIAL
 11
134.5454551754573
 21
169.6117398529341
 31
0.0
100
AcDbAttribute
  2
$BORNE
 70
     0
 74
     2
  0
ATTRIB
  5
319
330
316
100
AcDbEntity
  8
B
  6
FIN
 62
     3
100
AcDbText
 10
128.8152689986776
 20
168.6807333920631
 30
0.0
 40
1.86201292174203
  1
X2
 41
0.9200000000000001
  7
ARIAL
 72
     2
 11
131.7424142779727
 21
169.6117398529341
 31
0.0
100
AcDbAttribute
  2
$NOMCOMP
 70
     0
 74
     2
  0
SEQEND
  5
32A
330
316
100
AcDbEntity
  8
B
  6
FIN
 62
     0
  0
INSERT
  5
329
330
1F
100
AcDbEntity
  8
B
  6
FIN
 62
     0
100
AcDbBlockReference
 66
     1
  2
S02C0N_S01_0_3_1
 10
140.1515102386474
 20
153.143934726715
 30
0.0
  0
ATTRIB
  5
32B
330
329
100
AcDbEntity
  8
B
  6
FIN
 62
     3
100
AcDbText
 10
127.7486289802841
 20
161.5567687066322
 30
0.0
 40
2.094764536959783
  1
S3
 41
0.9200000000000001
  7
ARIAL
 72
     2
 11
131.0416674194912
 21
162.6041509751121
 31
0.0
100
AcDbAttribute
  2
$NOMCOMP
 70
     1
 74
     2
  0
ATTRIB
  5
32C
330
329
100
AcDbEntity
  8
B
  6
FIN
 62
     1
100
AcDbText
 10
130.1174651565057
 20
146.0225021517812
 30
0.0
 40
1.629261306524276
  1
2-9
 41
0.9200000000000001
  7
ARIAL
 72
     2
 11
133.143934726715
 21
146.8371328050434
 31
0.0
100
AcDbAttribute
  2
$REFCRO
 70
     0
 74
     2
  0
SEQEND
  5
32E
330
329
100
AcDbEntity
  8
B
  6
FIN
 62
     0
  0
INSERT
  5
32D
330
1F
100
AcDbEntity
  8
B
  6
FIN
 62
     0
100
AcDbBlockReference
 66
     1
  2
X12C0_X01_0_3_1
 10
140.1515102386474
 20
167.1590857505798
 30
0.0
  0
ATTRIB
  5
32F
330
32D
100
AcDbEntity
  8
B
  6
FIN
 62
     3
100
AcDbText
 10
141.5530306873898
 20
168.6807333920631
 30
0.0
 40
1.86201292174203
  1
2
 41
0.9200000000000001
  7
ARIAL
 11
141.5530306873898
 21
169.6117398529341
 31
0.0
100
AcDbAttribute
  2
$BORNE
 70
     0
 74
     2
  0
ATTRIB
  5
330
330
32D
100
AcDbEntity
  8
B
  6
FIN
 62
     3
100
AcDbText
 10
135.82284451061
 20
168.6807333920631
 30
0.0
 40
1.86201292174203
  1
X2
 41
0.9200000000000001
  7
ARIAL
 72
     2
 11
138.7499897899052
 21
169.6117398529341
 31
0.0
100
AcDbAttribute
  2
$NOMCOMP
 70
     1
 74
     2
  0
SEQEND
  5
332
330
32D
100
AcDbEntity
  8
B
  6
FIN
 62
     0
  0
INSERT
  5
331
330
1F
100
AcDbEntity
  8
B
  6
FIN
 62
     0
100
AcDbBlockReference
 66
     1
  2
X12C0_X01_0_3_1
 10
147.1590857505798
 20
104.0909061431884
 30
0.0
  0
ATTRIB
  5
333
330
331
100
AcDbEntity
  8
B
  6
FIN
 62
     3
100
AcDbText
 10
148.560606199322
 20
105.6125537846716
 30
0.0
 40
1.86201292174203
  1
14
 41
0.9200000000000001
  7
ARIAL
 11
148.560606199322
 21
106.5435602455427
 31
0.0
100
AcDbAttribute
  2
$BORNE
 70
     0
 74
     2
  0
ATTRIB
  5
334
330
331
100
AcDbEntity
  8
B
  6
FIN
 62
     3
100
AcDbText
 10
142.8304200225423
 20
105.6125537846716
 30
0.0
 40
1.86201292174203
  1
X2
 41
0.9200000000000001
  7
ARIAL
 72
     2
 11
145.7575653018374
 21
106.5435602455427
 31
0.0
100
AcDbAttribute
  2
$NOMCOMP
 70
     0
 74
     2
  0
SEQEND
  5
344
330
331
100
AcDbEntity
  8
B
  6
FIN
 62
     0
  0
INSERT
  5
343
330
1F
100
AcDbEntity
  8
B
  6
FIN
 62
     0
100
AcDbBlockReference
 66
     1
  2
012C0_001_0_3_1
 10
150.6628735065459
 20
191.6856000423431
 30
0.0
  0
ATTRIB
  5
345
330
343
100
AcDbEntity
  8
B
  6
FIN
 62
     3
100
AcDbText
 10
153.8162878332714
 20
191.3377186259306
 30
0.0
 40
1.396509691306523
  1
25
 41
0.9200000000000001
  7
ARIAL
 11
153.8162878332714
 21
192.0359734715838
 31
0.0
100
AcDbAttribute
  2
$REPERE
 70
     1
 74
     2
  0
ATTRIB
  5
346
330
343
100
AcDbEntity
  8
B
  6
FIN
 62
     1
100
AcDbText
 10
154.5170346917529
 20
191.2213695501009
 30
0.0
 40
1.629261306524276
  1
4-14
 41
0.9200000000000001
  7
ARIAL
 11
154.5170346917529
 21
192.036000203363
 31
0.0
100
AcDbAttribute
  2
$REFTEAB00
 70
     0
 74
     2
  0
SEQEND
  5
348
330
343
100
AcDbEntity
  8
B
  6
FIN
 62
     0
  0
INSERT
  5
347
330
1F
100
AcDbEntity
  8
B
  6
FIN
 62
     0
100
AcDbBlockReference
 66
     1
  2
012C0_001_0_3_1
 10
154.1666612625121
 20
111.0984816551209
 30
0.0
  0
ATTRIB
  5
349
330
347
100
AcDbEntity
  8
B
  6
FIN
 62
     3
100
AcDbText
 10
157.3200755892376
 20
110.7506069216531
 30
0.0
 40
1.396509691306523
  1
21
 41
0.9200000000000001
  7
ARIAL
 11
157.3200755892376
 21
111.4488617673063
 31
0.0
100
AcDbAttribute
  2
$REPERE
 70
     1
 74
     2
  0
ATTRIB
  5
34A
330
347
100
AcDbEntity
  8
B
  6
FIN
 62
     1
100
AcDbText
 10
153.1155142430106
 20
106.429709865486
 30
0.0
 40
1.629261306524276
  1
4-14
 41
0.9200000000000001
  7
ARIAL
 11
153.1155142430106
 21
107.2443405187482
 31
0.0
100
AcDbAttribute
  2
$REFTEAB00
 70
     0
 74
     2
  0
SEQEND
  5
358
330
347
100
AcDbEntity
  8
B
  6
FIN
 62
     0
  0
INSERT
  5
357
330
1F
100
AcDbEntity
  8
B
  6
FIN
 62
     0
100
AcDbBlockReference
 66
     1
  2
B41C0N_B03_0_3_1
 10
161.1742367744446
 20
146.1363592147827
 30
0.0
  0
ATTRIB
  5
359
330
357
100
AcDbEntity
  8
B
  6
FIN
 62
     3
100
AcDbText
 10
154.3774105792713
 20
141.9355626195774
 30
0.0
 40
2.094764536959783
  1
B2
 41
0.9200000000000001
  7
ARIAL
 72
     2
 11
157.6704490184784
 21
142.9829448880573
 31
0.0
100
AcDbAttribute
  2
$NOMCOMP
 70
     1
 74
     2
  0
ATTRIB
  5
35B
330
357
100
AcDbEntity
  8
B
  6
FIN
 62
     4
100
AcDbText
 10
162.0640332045149
 20
147.1611633740272
 30
0.0
 40
0.6860047606418008
  1
2-11
 41
2.299999999999999
  7
COURIER_NEW
 72
     4
 11
165.3787847547819
 21
147.537879663525
 31
0.0
100
AcDbAttribute
  2
$REFCRO
 70
     0
 74
     2
  0
SEQEND
  5
374
330
357
100
AcDbEntity
  8
B
  6
FIN
 62
     0
  0
INSERT
  5
373
330
1F
100
AcDbEntity
  8
B
  6
FIN
 62
     0
100
AcDbBlockReference
 66
     1
  2
B53C0N_B03_0_3_1
 10
161.1742367744446
 20
142.6325714588164
 30
0.0
  0
ATTRIB
  5
375
330
373
100
AcDbEntity
  8
B
  6
FIN
 62
     3
100
AcDbText
 10
149.121728945322
 20
141.9355626195774
 30
0.0
 40
2.094764536959783
  1
B2
 41
0.9200000000000001
  7
ARIAL
 72
     2
 11
152.414767384529
 21
142.9829448880573
 31
0.0
100
AcDbAttribute
  2
$NOMCOMP
 70
     0
 74
     2
  0
ATTRIB
  5
376
330
373
100
AcDbEntity
  8
B
  6
FIN
 62
     1
100
AcDbText
 10
147.571865716808
 20
136.5622591716051
 30
0.0
 40
1.629261306524276
  1
 2-11
 41
0.9200000000000001
  7
ARIAL
 72
     2
 11
152.344690025503
 21
137.3768898248673
 31
0.0
100
AcDbAttribute
  2
$REFCRO00
 70
     0
 74
     2
  0
SEQEND
  5
378
330
373
100
AcDbEntity
  8
B
  6
FIN
 62
     0
  0
INSERT
  5
377
330
1F
100
AcDbEntity
  8
B
  6
FIN
 62
     0
100
AcDbBlockReference
 66
     1
  2
X12C0_X01_0_3_1
 10
161.1742367744446
 20
167.1590857505798
 30
0.0
  0
ATTRIB
  5
379
330
377
100
AcDbEntity
  8
B
  6
FIN
 62
     3
100
AcDbText
 10
162.5757572231869
 20
168.6807333920631
 30
0.0
 40
1.86201292174203
  1
3
 41
0.9200000000000001
  7
ARIAL
 11
162.5757572231869
 21
169.6117398529341
 31
0.0
100
AcDbAttribute
  2
$BORNE
 70
     0
 74
     2
  0
ATTRIB
  5
37A
330
377
100
AcDbEntity
  8
B
  6
FIN
 62
     3
100
AcDbText
 10
156.8455710464071
 20
168.6807333920631
 30
0.0
 40
1.86201292174203
  1
X2
 41
0.9200000000000001
  7
ARIAL
 72
     2
 11
159.7727163257023
 21
169.6117398529341
 31
0.0
100
AcDbAttribute
  2
$NOMCOMP
 70
     1
 74
     2
  0
SEQEND
  5
37C
330
377
100
AcDbEntity
  8
B
  6
FIN
 62
     0
  0
INSERT
  5
37B
330
1F
100
AcDbEntity
  8
B
  6
FIN
 62
     0
100
AcDbBlockReference
 66
     1
  2
X12C0_X01_0_3_1
 10
168.1818122863769
 20
93.57954287528992
 30
0.0
  0
ATTRIB
  5
37D
330
37B
100
AcDbEntity
  8
B
  6
FIN
 62
     3
100
AcDbText
 10
169.5833327351193
 20
95.10119051677314
 30
0.0
 40
1.86201292174203
  1
11
 41
0.9200000000000001
  7
ARIAL
 11
169.5833327351193
 21
96.03219697764416
 31
0.0
100
AcDbAttribute
  2
$BORNE
 70
     0
 74
     2
  0
ATTRIB
  5
37E
330
37B
100
AcDbEntity
  8
B
  6
FIN
 62
     3
100
AcDbText
 10
163.8531465583395
 20
95.10119051677314
 30
0.0
 40
1.86201292174203
  1
X2
 41
0.9200000000000001
  7
ARIAL
 72
     2
 11
166.7802918376347
 21
96.03219697764416
 31
0.0
100
AcDbAttribute
  2
$NOMCOMP
 70
     0
 74
     2
  0
SEQEND
  5
3E3
330
37B
100
AcDbEntity
  8
B
  6
FIN
 62
     0
  0
INSERT
  5
3E2
330
1F
100
AcDbEntity
  8
B
  6
FIN
 62
     0
100
AcDbBlockReference
 66
     1
  2
CLAVIER_KNX_0_3_1
 10
182.1969633102417
 20
142.6325714588164
 30
0.0
  0
ATTRIB
  5
3E4
330
3E2
100
AcDbEntity
  8
B
  6
FIN
 62
     4
100
AcDbText
 10
204.7581485569408
 20
164.9429346485753
 30
0.0
 40
1.629261306524276
  1
TYPE
 41
0.9200000000000001
  7
ARIAL
 72
     2
 11
210.2272653579711
 21
165.7575653018374
 31
0.0
100
AcDbAttribute
  2
TYPE
 70
     0
 74
     2
  0
ATTRIB
  5
3E5
330
3E2
100
AcDbEntity
  8
B
  6
FIN
 62
     1
100
AcDbText
 10
180.3740704416986
 20
143.9778800256212
 30
0.0
 40
1.512885498915399
  1
NO
 41
1.149999999999999
  7
ARIAL
 72
     4
 11
182.1969633102417
 21
144.7348387660404
 31
0.0
100
AcDbAttribute
  2
$PL:1
 70
     0
 74
     2
  0
ATTRIB
  5
3E6
330
3E2
100
AcDbEntity
  8
B
  6
FIN
 62
     1
100
AcDbText
 10
188.3269155954243
 20
143.9783960165827
 30
0.0
 40
1.512885498915399
  1
C
 41
1.149999999999999
  7
ARIAL
 72
     4
 11
189.204538822174
 21
144.7348387660404
 31
0.0
100
AcDbAttribute
  2
$PL:2
 70
     0
 74
     2
  0
ATTRIB
  5
3E7
330
3E2
100
AcDbEntity
  8
B
  6
FIN
 62
     1
100
AcDbText
 10
204.9005847334619
 20
143.9778800256212
 30
0.0
 40
1.512885498915399
  1
NO
 41
1.149999999999999
  7
ARIAL
 72
     4
 11
206.723477602005
 21
144.7348387660404
 31
0.0
100
AcDbAttribute
  2
$PL:5
 70
     0
 74
     2
  0
ATTRIB
  5
3E8
330
3E2
100
AcDbEntity
  8
B
  6
FIN
 62
     1
100
AcDbText
 10
212.8534298871876
 20
143.9783960165827
 30
0.0
 40
1.512885498915399
  1
C
 41
1.149999999999999
  7
ARIAL
 72
     4
 11
213.7310531139374
 21
144.7348387660404
 31
0.0
100
AcDbAttribute
  2
$PL:6
 70
     0
 74
     2
  0
ATTRIB
  5
3E9
330
3E2
100
AcDbEntity
  8
B
  6
FIN
 62
     1
100
AcDbText
 10
194.9425341399349
 20
143.9783960165827
 30
0.0
 40
1.512885498915399
  1
NF
 41
1.149999999999999
  7
ARIAL
 72
     4
 11
196.5624877633472
 21
144.7348387660404
 31
0.0
100
AcDbAttribute
  2
$PL:7
 70
     0
 74
     2
  0
ATTRIB
  5
3EA
330
3E2
100
AcDbEntity
  8
B
  6
FIN
 62
     1
100
AcDbText
 10
219.1186750024575
 20
143.9783960165827
 30
0.0
 40
1.512885498915399
  1
NF
 41
1.149999999999999
  7
ARIAL
 72
     4
 11
220.7386286258698
 21
144.7348387660404
 31
0.0
100
AcDbAttribute
  2
$PL:8
 70
     0
 74
     2
  0
SEQEND
  5
3EC
330
3E2
100
AcDbEntity
  8
B
  6
FIN
 62
     0
  0
INSERT
  5
3EB
330
1F
100
AcDbEntity
  8
B
  6
FIN
 62
     0
100
AcDbBlockReference
 66
     1
  2
X12C0_X01_0_3_1
 10
182.1969633102417
 20
128.6174204349518
 30
0.0
  0
ATTRIB
  5
3ED
330
3EB
100
AcDbEntity
  8
B
  6
FIN
 62
     3
100
AcDbText
 10
183.5984837589839
 20
130.139068076435
 30
0.0
 40
1.86201292174203
  1
4
 41
0.9200000000000001
  7
ARIAL
 11
183.5984837589839
 21
131.0700745373059
 31
0.0
100
AcDbAttribute
  2
$BORNE
 70
     0
 74
     2
  0
ATTRIB
  5
3EE
330
3EB
100
AcDbEntity
  8
B
  6
FIN
 62
     3
100
AcDbText
 10
177.8682975822042
 20
130.139068076435
 30
0.0
 40
1.86201292174203
  1
X2
 41
0.9200000000000001
  7
ARIAL
 72
     2
 11
180.7954428614993
 21
131.0700745373059
 31
0.0
100
AcDbAttribute
  2
$NOMCOMP
 70
     0
 74
     2
  0
SEQEND
  5
3F0
330
3EB
100
AcDbEntity
  8
B
  6
FIN
 62
     0
  0
INSERT
  5
3EF
330
1F
100
AcDbEntity
  8
B
  6
FIN
 62
     0
100
AcDbBlockReference
 66
     1
  2
X12C0_X01_0_3_1
 10
189.204538822174
 20
93.57954287528992
 30
0.0
  0
ATTRIB
  5
3F1
330
3EF
100
AcDbEntity
  8
B
  6
FIN
 62
     3
100
AcDbText
 10
190.6060592709163
 20
95.10119051677314
 30
0.0
 40
1.86201292174203
  1
12
 41
0.9200000000000001
  7
ARIAL
 11
190.6060592709163
 21
96.03219697764416
 31
0.0
100
AcDbAttribute
  2
$BORNE
 70
     0
 74
     2
  0
ATTRIB
  5
3F2
330
3EF
100
AcDbEntity
  8
B
  6
FIN
 62
     3
100
AcDbText
 10
184.8758730941366
 20
95.10119051677314
 30
0.0
 40
1.86201292174203
  1
X2
 41
0.9200000000000001
  7
ARIAL
 72
     2
 11
187.8030183734318
 21
96.03219697764416
 31
0.0
100
AcDbAttribute
  2
$NOMCOMP
 70
     0
 74
     2
  0
SEQEND
  5
3F4
330
3EF
100
AcDbEntity
  8
B
  6
FIN
 62
     0
  0
INSERT
  5
3F3
330
1F
100
AcDbEntity
  8
B
  6
FIN
 62
     0
100
AcDbBlockReference
 66
     1
  2
X12C0_X01_0_3_1
 10
189.204538822174
 20
128.6174204349518
 30
0.0
  0
ATTRIB
  5
3F5
330
3F3
100
AcDbEntity
  8
B
  6
FIN
 62
     3
100
AcDbText
 10
190.6060592709163
 20
130.139068076435
 30
0.0
 40
1.86201292174203
  1
5
 41
0.9200000000000001
  7
ARIAL
 11
190.6060592709163
 21
131.0700745373059
 31
0.0
100
AcDbAttribute
  2
$BORNE
 70
     0
 74
     2
  0
ATTRIB
  5
3F6
330
3F3
100
AcDbEntity
  8
B
  6
FIN
 62
     3
100
AcDbText
 10
184.8758730941366
 20
130.139068076435
 30
0.0
 40
1.86201292174203
  1
X2
 41
0.9200000000000001
  7
ARIAL
 72
     2
 11
187.8030183734318
 21
131.0700745373059
 31
0.0
100
AcDbAttribute
  2
$NOMCOMP
 70
     1
 74
     2
  0
SEQEND
  5
3F8
330
3F3
100
AcDbEntity
  8
B
  6
FIN
 62
     0
  0
INSERT
  5
3F7
330
1F
100
AcDbEntity
  8
B
  6
FIN
 62
     0
100
AcDbBlockReference
 66
     1
  2
X12C0_X01_0_3_1
 10
199.7159020900726
 20
184.6780245304108
 30
0.0
  0
ATTRIB
  5
3F9
330
3F7
100
AcDbEntity
  8
B
  6
FIN
 62
     3
100
AcDbText
 10
201.1174225388148
 20
186.199672171894
 30
0.0
 40
1.86201292174203
  1
8
 41
0.9200000000000001
  7
ARIAL
 11
201.1174225388148
 21
187.130678632765
 31
0.0
100
AcDbAttribute
  2
$BORNE
 70
     0
 74
     2
  0
ATTRIB
  5
3FA
330
3F7
100
AcDbEntity
  8
B
  6
FIN
 62
     3
100
AcDbText
 10
195.3872363620351
 20
186.199672171894
 30
0.0
 40
1.86201292174203
  1
X2
 41
0.9200000000000001
  7
ARIAL
 72
     2
 11
198.3143816413303
 21
187.130678632765
 31
0.0
100
AcDbAttribute
  2
$NOMCOMP
 70
     0
 74
     2
  0
SEQEND
  5
3FC
330
3F7
100
AcDbEntity
  8
B
  6
FIN
 62
     0
  0
INSERT
  5
3FB
330
1F
100
AcDbEntity
  8
B
  6
FIN
 62
     0
100
AcDbBlockReference
 66
     1
  2
X12C0_X01_0_3_1
 10
206.723477602005
 20
184.6780245304108
 30
0.0
  0
ATTRIB
  5
3FD
330
3FB
100
AcDbEntity
  8
B
  6
FIN
 62
     3
100
AcDbText
 10
208.1249980507473
 20
186.199672171894
 30
0.0
 40
1.86201292174203
  1
9
 41
0.9200000000000001
  7
ARIAL
 11
208.1249980507473
 21
187.130678632765
 31
0.0
100
AcDbAttribute
  2
$BORNE
 70
     0
 74
     2
  0
ATTRIB
  5
3FE
330
3FB
100
AcDbEntity
  8
B
  6
FIN
 62
     3
100
AcDbText
 10
202.3948118739675
 20
186.199672171894
 30
0.0
 40
1.86201292174203
  1
X2
 41
0.9200000000000001
  7
ARIAL
 72
     2
 11
205.3219571532626
 21
187.130678632765
 31
0.0
100
AcDbAttribute
  2
$NOMCOMP
 70
     1
 74
     2
  0
SEQEND
  5
400
330
3FB
100
AcDbEntity
  8
B
  6
FIN
 62
     0
  0
INSERT
  5
3FF
330
1F
100
AcDbEntity
  8
B
  6
FIN
 62
     0
100
AcDbBlockReference
 66
     1
  2
X12C0_X01_0_3_1
 10
206.723477602005
 20
128.6174204349518
 30
0.0
  0
ATTRIB
  5
401
330
3FF
100
AcDbEntity
  8
B
  6
FIN
 62
     3
100
AcDbText
 10
208.1249980507473
 20
130.139068076435
 30
0.0
 40
1.86201292174203
  1
7
 41
0.9200000000000001
  7
ARIAL
 11
208.1249980507473
 21
131.0700745373059
 31
0.0
100
AcDbAttribute
  2
$BORNE
 70
     0
 74
     2
  0
ATTRIB
  5
402
330
3FF
100
AcDbEntity
  8
B
  6
FIN
 62
     3
100
AcDbText
 10
202.3948118739675
 20
130.139068076435
 30
0.0
 40
1.86201292174203
  1
X2
 41
0.9200000000000001
  7
ARIAL
 72
     2
 11
205.3219571532626
 21
131.0700745373059
 31
0.0
100
AcDbAttribute
  2
$NOMCOMP
 70
     1
 74
     2
  0
SEQEND
  5
404
330
3FF
100
AcDbEntity
  8
B
  6
FIN
 62
     0
  0
INSERT
  5
403
330
1F
100
AcDbEntity
  8
B
  6
FIN
 62
     0
100
AcDbBlockReference
 66
     1
  2
X12C0_X01_0_3_1
 10
213.7310531139374
 20
128.6174204349518
 30
0.0
  0
ATTRIB
  5
405
330
403
100
AcDbEntity
  8
B
  6
FIN
 62
     3
100
AcDbText
 10
215.1325735626796
 20
130.139068076435
 30
0.0
 40
1.86201292174203
  1
6
 41
0.9200000000000001
  7
ARIAL
 11
215.1325735626796
 21
131.0700745373059
 31
0.0
100
AcDbAttribute
  2
$BORNE
 70
     0
 74
     2
  0
ATTRIB
  5
406
330
403
100
AcDbEntity
  8
B
  6
FIN
 62
     3
100
AcDbText
 10
209.4023873858999
 20
130.139068076435
 30
0.0
 40
1.86201292174203
  1
X2
 41
0.9200000000000001
  7
ARIAL
 72
     2
 11
212.329532665195
 21
131.0700745373059
 31
0.0
100
AcDbAttribute
  2
$NOMCOMP
 70
     1
 74
     2
  0
SEQEND
  5
414
330
403
100
AcDbEntity
  8
B
  6
FIN
 62
     0
  0
INSERT
  5
413
330
1F
100
AcDbEntity
  8
B
  6
FIN
 62
     0
100
AcDbBlockReference
 66
     1
  2
002C0_000_0_3_1
 10
283.8068082332611
 20
37.51893877983092
 30
0.0
  0
ATTRIB
  5
415
330
413
100
AcDbEntity
  8
B
  6
FIN
 62
     1
100
AcDbText
 10
281.3575994070068
 20
38.80658044600126
 30
0.0
 40
1.629261306524276
  1
-
 41
0.9200000000000001
  7
ARIAL
 72
     2
 11
282.054914355278
 21
39.6212110992634
 31
0.0
100
AcDbAttribute
  2
$NUM_EQUI
 70
     0
 74
     2
  0
ATTRIB
  5
416
330
413
100
AcDbEntity
  8
B
  6
FIN
 62
     3
100
AcDbText
 10
286.1523366157221
 20
37.22925027943149
 30
0.0
 40
1.280133883697645
  1
4
 41
0.9200000000000001
  7
ARIAL
 72
     4
 11
286.6098491307457
 21
37.86931722128031
 31
0.0
100
AcDbAttribute
  2
$REPERE
 70
     1
 74
     2
  0
ATTRIB
  5
417
330
413
100
AcDbEntity
  8
B
  6
FIN
 62
     1
100
AcDbText
 10
285.7712523716899
 20
37.23800415373395
 30
0.0
 40
1.280133883697645
  1
3-1
 41
0.9200000000000001
  7
ARIAL
 72
     4
 11
286.9602225599864
 21
37.86933894085086
 31
0.0
100
AcDbAttribute
  2
$REFTEAB00
 70
     0
 74
     2
  0
SEQEND
  5
419
330
413
100
AcDbEntity
  8
B
  6
FIN
 62
     0
  0
INSERT
  5
418
330
1F
100
AcDbEntity
  8
B
  6
FIN
 62
     0
100
AcDbBlockReference
 66
     1
  2
002C0_000_0_3_1
 10
283.8068082332611
 20
41.02272653579712
 30
0.0
  0
ATTRIB
  5
41A
330
418
100
AcDbEntity
  8
B
  6
FIN
 62
     1
100
AcDbText
 10
280.8320570559636
 20
42.31036820196746
 30
0.0
 40
1.629261306524276
  1
+
 41
0.9200000000000001
  7
ARIAL
 72
     2
 11
282.054914355278
 21
43.12499885522959
 31
0.0
100
AcDbAttribute
  2
$NUM_EQUI
 70
     0
 74
     2
  0
ATTRIB
  5
41B
330
418
100
AcDbEntity
  8
B
  6
FIN
 62
     3
100
AcDbText
 10
286.1523366157221
 20
40.7304183889781
 30
0.0
 40
1.280133883697645
  1
1
 41
0.9200000000000001
  7
ARIAL
 72
     4
 11
286.6098491307457
 21
41.3731049772465
 31
0.0
100
AcDbAttribute
  2
$REPERE
 70
     1
 74
     2
  0
ATTRIB
  5
41C
330
418
100
AcDbEntity
  8
B
  6
FIN
 62
     1
100
AcDbText
 10
285.7712523716899
 20
40.74179190970013
 30
0.0
 40
1.280133883697645
  1
3-1
 41
0.9200000000000001
  7
ARIAL
 72
     4
 11
286.9602225599864
 21
41.37312669681704
 31
0.0
100
AcDbAttribute
  2
$REFTEAB00
 70
     0
 74
     2
  0
SEQEND
  5
41E
330
418
100
AcDbEntity
  8
B
  6
FIN
 62
     0
  0
INSERT
  5
41D
330
1F
100
AcDbEntity
  8
B
  6
FIN
 62
     0
100
AcDbBlockReference
 66
     1
  2
012C0_001_0_3_1
 10
283.8068082332611
 20
97.08333063125609
 30
0.0
  0
ATTRIB
  5
41F
330
41D
100
AcDbEntity
  8
B
  6
FIN
 62
     3
100
AcDbText
 10
286.9602225599864
 20
96.73545589778843
 30
0.0
 40
1.396509691306523
  1
16
 41
0.9200000000000001
  7
ARIAL
 11
286.9602225599864
 21
97.43371074344169
 31
0.0
100
AcDbAttribute
  2
$REPERE
 70
     1
 74
     2
  0
ATTRIB
  5
420
330
41D
100
AcDbEntity
  8
B
  6
FIN
 62
     1
100
AcDbText
 10
287.6609694184681
 20
96.6191001390139
 30
0.0
 40
1.629261306524276
  1
5-11
 41
0.9200000000000001
  7
ARIAL
 11
287.6609694184681
 21
97.43373079227604
 31
0.0
100
AcDbAttribute
  2
$REFTEAB00
 70
     0
 74
     2
  0
SEQEND
  5
422
330
41D
100
AcDbEntity
  8
B
  6
FIN
 62
     0
  0
INSERT
  5
421
330
1F
100
AcDbEntity
  8
B
  6
FIN
 62
     0
100
AcDbBlockReference
 66
     1
  2
012C0_001_0_3_1
 10
283.8068082332611
 20
198.6931755542755
 30
0.0
  0
ATTRIB
  5
423
330
421
100
AcDbEntity
  8
B
  6
FIN
 62
     3
100
AcDbText
 10
286.9602225599864
 20
198.345294137863
 30
0.0
 40
1.396509691306523
  1
15
 41
0.9200000000000001
  7
ARIAL
 11
286.9602225599864
 21
199.0435489835163
 31
0.0
100
AcDbAttribute
  2
$REPERE
 70
     1
 74
     2
  0
ATTRIB
  5
424
330
421
100
AcDbEntity
  8
B
  6
FIN
 62
     1
100
AcDbText
 10
287.6609694184681
 20
198.2289450620333
 30
0.0
 40
1.629261306524276
  1
5-5
 41
0.9200000000000001
  7
ARIAL
 11
287.6609694184681
 21
199.0435757152954
 31
0.0
100
AcDbAttribute
  2
$REFTEAB00
 70
     0
 74
     2
  0
SEQEND
  5
437
330
421
100
AcDbEntity
  8
B
  6
FIN
 62
     0
  0
TEXT
  5
425
330
1F
100
AcDbEntity
  8
B
  6
FIN
 62
     7
100
AcDbText
 10
44.84848728613406
 20
96.38257708982974
 30
0.0
 40
1.86201292174203
  1
INTERFACE USB / KNX
 41
1.149999999999999
  7
ARIAL
100
AcDbText
  0
TEXT
  5
426
330
1F
100
AcDbEntity
  8
B
  6
FIN
 62
     7
100
AcDbText
 10
209.5265184994895
 20
175.9185551404953
 30
0.0
 40
1.396509691306523
  1
CLAVIER CONTROLE D'ACCES
 41
1.149999999999999
  7
ARIAL
100
AcDbText
  0
TEXT
  5
427
330
1F
100
AcDbEntity
  8
B
  6
FIN
 62
     7
100
AcDbText
 10
148.560606199322
 20
149.9905337658793
 30
0.0
 40
1.396509691306523
  1
Détecteur
 41
1.149999999999999
  7
ARIAL
100
AcDbText
  0
TEXT
  5
428
330
1F
100
AcDbEntity
  8
B
  6
FIN
 62
     7
100
AcDbText
 10
148.560606199322
 20
147.1875062342841
 30
0.0
 40
1.396509691306523
  1
fumée
 41
1.149999999999999
  7
ARIAL
100
AcDbText
  0
TEXT
  5
429
330
1F
100
AcDbEntity
  8
B
  6
FIN
 62
     7
100
AcDbText
 10
120.5303041515927
 20
161.5530306873898
 30
0.0
 40
1.86201292174203
  1
W1
 41
1.149999999999999
  7
ARIAL
100
AcDbText
  0
TEXT
  5
42A
330
1F
100
AcDbEntity
  8
B
  6
FIN
 62
     7
100
AcDbText
 10
131.7424276438624
 20
127.9166602105806
 30
0.0
 40
1.86201292174203
  1
W1
 41
1.149999999999999
  7
ARIAL
100
AcDbText
  0
TEXT
  5
42B
330
1F
100
AcDbEntity
  8
B
  6
FIN
 62
     7
100
AcDbText
 10
153.4659144040306
 20
160.8522704630185
 30
0.0
 40
1.86201292174203
  1
W2
 41
1.149999999999999
  7
ARIAL
100
AcDbText
  0
TEXT
  5
42C
330
1F
100
AcDbEntity
  8
B
  6
FIN
 62
     7
100
AcDbText
 10
152.7651541796594
 20
128.6174204349518
 30
0.0
 40
1.86201292174203
  1
W2
 41
1.149999999999999
  7
ARIAL
100
AcDbText
  0
TEXT
  5
42D
330
1F
100
AcDbEntity
  8
B
  6
FIN
 62
     7
100
AcDbText
 10
190.606072636806
 20
179.7727296915919
 30
0.0
 40
1.86201292174203
  1
W3
 41
1.149999999999999
  7
ARIAL
100
AcDbText
  0
TEXT
  5
42E
330
1F
100
AcDbEntity
  8
B
  6
FIN
 62
     1
100
AcDbText
 10
206.5439456346696
 20
171.9527351193718
 30
0.0
 40
1.396509691306523
  1
-
 41
0.9200000000000001
  7
ARIAL
 72
     4
 11
206.8427948982144
 21
172.0389453015432
 31
0.0
100
AcDbText
  0
TEXT
  5
42F
330
1F
100
AcDbEntity
  8
B
  6
FIN
 62
     1
100
AcDbText
 10
199.23652260804
 20
171.5774112323494
 30
0.0
 40
1.396509691306523
  1
+
 41
0.9200000000000001
  7
ARIAL
 72
     4
 11
199.7606043077461
 21
172.0389453015432
 31
0.0
100
AcDbText
  0
TEXT
  5
430
330
1F
100
AcDbEntity
  8
B
  6
FIN
 62
     7
100
AcDbText
 10
215.5564861163456
 20
137.0619761006609
 30
0.0
 40
1.86201292174203
  1
W3
 41
1.149999999999999
  7
ARIAL
100
AcDbText
  0
TEXT
  5
431
330
1F
100
AcDbEntity
  8
B
  6
FIN
 62
     7
100
AcDbText
 10
190.7574012385403
 20
136.7116026714202
 30
0.0
 40
1.86201292174203
  1
W3
 41
1.149999999999999
  7
ARIAL
100
AcDbText
  0
TEXT
  5
432
330
1F
100
AcDbEntity
  8
B
  6
FIN
 62
     7
100
AcDbText
 10
111.6568237236279
 20
26.81031335994759
 30
0.0
 40
1.396509691306523
  1
RELAIS 1 CLAVIER D'ACCES
 41
0.9200000000000001
  7
ARIAL
100
AcDbText
  0
TEXT
  5
433
330
1F
100
AcDbEntity
  8
B
  6
FIN
 62
     7
100
AcDbText
 10
132.6770642039645
 20
32.25762843563564
 30
0.0
 40
1.396509691306523
  1
INTERRUPTEUR A CARTE
 41
0.9200000000000001
  7
ARIAL
100
AcDbText
  0
TEXT
  5
434
330
1F
100
AcDbEntity
  8
B
  6
FIN
 62
     7
100
AcDbText
 10
152.9795430483945
 20
26.62246580643011
 30
0.0
 40
1.396509691306523
  1
DETECTEUR DE FUMEE
 41
0.9200000000000001
  7
ARIAL
100
AcDbText
  0
TEXT
  5
435
330
1F
100
AcDbEntity
  8
B
  6
FIN
 62
     7
100
AcDbText
 10
171.8238167064073
 20
32.24843103287389
 30
0.0
 40
1.396509691306523
  1
RELAIS 2 CLAVIER D'ACCES
 41
0.9200000000000001
  7
ARIAL
100
AcDbText
  0
TEXT
  5
436
330
1F
100
AcDbEntity
  8
B
  6
FIN
 62
     7
100
AcDbText
 10
12.53060835204587
 20
96.60499885819763
 30
0.0
 40
1.86201292174203
  1
HORLOGE
 41
1.149999999999999
  7
ARIAL
100
AcDbText
  0
ENDSEC
  0
SECTION
  2
OBJECTS
  0
DICTIONARY
  5
C
330
0
100
AcDbDictionary
281
     1
  3
ACAD_GROUP
350
D
  3
ACAD_IMAGE_DICT
350
79
  3
ACAD_IMAGE_VARS
350
7B
  3
ACAD_LAYOUT
350
1A
  3
ACAD_MLINESTYLE
350
17
  3
ACAD_PLOTSETTINGS
350
19
  3
ACAD_PLOTSTYLENAME
350
45F
  3
ACDBHEADERROUNDTRIPXREC
350
467
  3
AcDbVariableDictionary
350
464
  0
IMAGEDEF_REACTOR
  5
7D
330
7C
100
AcDbRasterImageDefReactor
 90
        2
330
7C
  0
DICTIONARY
  5
D
102
{ACAD_REACTORS
330
C
102
}
330
C
100
AcDbDictionary
281
     1
  0
DICTIONARY
  5
79
102
{ACAD_REACTORS
330
C
102
}
330
C
100
AcDbDictionary
281
     1
  3
PETIT_LOGO_ERM_BLEU_ET_ORA
350
7A
  0
RASTERVARIABLES
  5
7B
102
{ACAD_REACTORS
330
C
102
}
330
C
100
AcDbRasterVariables
 90
        0
 70
     1
 71
     1
 72
     0
  0
DICTIONARY
  5
1A
102
{ACAD_REACTORS
330
C
102
}
330
C
100
AcDbDictionary
281
     1
  3
Model
350
461
  3
Présentation1
350
462
  0
DICTIONARY
  5
17
102
{ACAD_REACTORS
330
C
102
}
330
C
100
AcDbDictionary
281
     1
  3
STANDARD
350
18
  0
DICTIONARY
  5
19
102
{ACAD_REACTORS
330
C
102
}
330
C
100
AcDbDictionary
281
     1
  0
ACDBDICTIONARYWDFLT
  5
45F
102
{ACAD_REACTORS
330
C
102
}
330
C
100
AcDbDictionary
281
     1
  3
Normal
350
460
100
AcDbDictionaryWithDefault
340
460
  0
DICTIONARY
  5
467
102
{ACAD_REACTORS
330
C
102
}
330
C
100
AcDbDictionary
281
     1
  3
CEPSNTYPE
350
471
  3
FINGERPRINTGUID
350
472
  3
HYPERLINKBASE
350
46A
  3
INSUNITS
350
470
  3
LAYOUTDICT
350
46C
  3
LWETCUNION
350
46F
  3
PLOTSETDICT
350
46D
  3
PLOTSTYLNAMDICT
350
46E
  3
PSVPSCALE
350
474
  3
PUCSBASE
350
477
  3
PUCSORGBACK
350
47D
  3
PUCSORGBOTTOM
350
479
  3
PUCSORGFRONT
350
47C
  3
PUCSORGLEFT
350
47A
  3
PUCSORGRIGHT
350
47B
  3
PUCSORGTOP
350
478
  3
PUCSORTHOREF
350
475
  3
PUCSORTHOVIEW
350
476
  3
STYLESHEET
350
46B
  3
TSTACKALIGN
350
468
  3
TSTACKSIZE
350
469
  3
UCSBASE
350
480
  3
UCSORGBACK
350
486
  3
UCSORGBOTTOM
350
482
  3
UCSORGFRONT
350
485
  3
UCSORGLEFT
350
483
  3
UCSORGRIGHT
350
484
  3
UCSORGTOP
350
481
  3
UCSORTHOREF
350
47E
  3
UCSORTHOVIEW
350
47F
  3
VERSIONGUID
350
473
  0
DICTIONARY
  5
464
102
{ACAD_REACTORS
330
C
102
}
330
C
100
AcDbDictionary
281
     1
  3
DIMASSOC
350
465
  0
IMAGEDEF
  5
7A
102
{ACAD_REACTORS
330
79
330
7D
102
}
330
79
100
AcDbRasterImageDef
 90
        0
  1
PETIT LOGO ERM BLEU ET ORANGE.JPG
 10
367.0
 20
137.0
 11
0.002724795640327
 21
0.002724795640327
280
     1
281
     1
  0
LAYOUT
  5
461
102
{ACAD_REACTORS
330
1A
102
}
330
1A
100
AcDbPlotSettings
  1

  2
\\PATRICK\HP LaserJet 6L
  4

  6

 40
0.0
 41
0.0
 42
0.0
 43
0.0
 44
0.0
 45
0.0
 46
0.0
 47
0.0
 48
0.0
 49
0.0
140
0.0
141
0.0
142
1.0
143
1.0
 70
  1712
 72
     0
 73
     0
 74
     0
  7

 75
     0
147
1.0
148
0.0
149
0.0
100
AcDbLayout
  1
Model
 70
     1
 71
     0
 10
0.0
 20
0.0
 11
12.0
 21
9.0
 12
0.0
 22
0.0
 32
0.0
 14
0.0
 24
0.0
 34
0.0
 15
0.0
 25
0.0
 35
0.0
146
0.0
 13
0.0
 23
0.0
 33
0.0
 16
1.0
 26
0.0
 36
0.0
 17
0.0
 27
1.0
 37
0.0
 76
     0
330
1F
  0
LAYOUT
  5
462
102
{ACAD_REACTORS
330
1A
102
}
330
1A
100
AcDbPlotSettings
  1

  2
\\PATRICK\HP LaserJet 6L
  4

  6

 40
0.0
 41
0.0
 42
0.0
 43
0.0
 44
0.0
 45
0.0
 46
0.0
 47
0.0
 48
0.0
 49
0.0
140
0.0
141
0.0
142
1.0
143
1.0
 70
   688
 72
     0
 73
     0
 74
     5
  7

 75
    16
147
1.0
148
0.0
149
0.0
100
AcDbLayout
  1
Présentation1
 70
     1
 71
     1
 10
0.0
 20
0.0
 11
297.0
 21
210.0
 12
0.0
 22
0.0
 32
0.0
 14
0.0
 24
0.0
 34
0.0
 15
297.0
 25
210.0
 35
0.0
146
0.0
 13
0.0
 23
0.0
 33
0.0
 16
1.0
 26
0.0
 36
0.0
 17
0.0
 27
1.0
 37
0.0
 76
     0
330
1B
  0
MLINESTYLE
  5
18
102
{ACAD_REACTORS
330
17
102
}
330
17
100
AcDbMlineStyle
  2
STANDARD
 70
     0
  3

 62
   256
 51
90.0
 52
90.0
 71
     2
 49
0.5
 62
   256
  6
BYLAYER
 49
-0.5
 62
   256
  6
BYLAYER
  0
ACDBPLACEHOLDER
  5
460
102
{ACAD_REACTORS
330
45F
102
}
330
45F
  0
XRECORD
  5
471
102
{ACAD_REACTORS
330
467
102
}
330
467
100
AcDbXrecord
280
     1
 90
        0
  0
XRECORD
  5
472
102
{ACAD_REACTORS
330
467
102
}
330
467
100
AcDbXrecord
280
     1
  1
{6D8E5C4C-58A5-4E55-8AD2-4433B680D6CF}
  0
XRECORD
  5
46A
102
{ACAD_REACTORS
330
467
102
}
330
467
100
AcDbXrecord
280
     1
  1

  0
XRECORD
  5
470
102
{ACAD_REACTORS
330
467
102
}
330
467
100
AcDbXrecord
280
     1
 90
        0
  0
XRECORD
  5
46C
102
{ACAD_REACTORS
330
467
102
}
330
467
100
AcDbXrecord
280
     1
340
1A
  0
XRECORD
  5
46F
102
{ACAD_REACTORS
330
467
102
}
330
467
100
AcDbXrecord
280
     1
 90
    10781
  0
XRECORD
  5
46D
102
{ACAD_REACTORS
330
467
102
}
330
467
100
AcDbXrecord
280
     1
340
19
  0
XRECORD
  5
46E
102
{ACAD_REACTORS
330
467
102
}
330
467
100
AcDbXrecord
280
     1
340
45F
  0
XRECORD
  5
474
102
{ACAD_REACTORS
330
467
102
}
330
467
100
AcDbXrecord
280
     1
 40
0.0
  0
XRECORD
  5
477
102
{ACAD_REACTORS
330
467
102
}
330
467
100
AcDbXrecord
280
     1
340
0
  0
XRECORD
  5
47D
102
{ACAD_REACTORS
330
467
102
}
330
467
100
AcDbXrecord
280
     1
 10
0.0
 20
0.0
 30
0.0
  0
XRECORD
  5
479
102
{ACAD_REACTORS
330
467
102
}
330
467
100
AcDbXrecord
280
     1
 10
0.0
 20
0.0
 30
0.0
  0
XRECORD
  5
47C
102
{ACAD_REACTORS
330
467
102
}
330
467
100
AcDbXrecord
280
     1
 10
0.0
 20
0.0
 30
0.0
  0
XRECORD
  5
47A
102
{ACAD_REACTORS
330
467
102
}
330
467
100
AcDbXrecord
280
     1
 10
0.0
 20
0.0
 30
0.0
  0
XRECORD
  5
47B
102
{ACAD_REACTORS
330
467
102
}
330
467
100
AcDbXrecord
280
     1
 10
0.0
 20
0.0
 30
0.0
  0
XRECORD
  5
478
102
{ACAD_REACTORS
330
467
102
}
330
467
100
AcDbXrecord
280
     1
 10
0.0
 20
0.0
 30
0.0
  0
XRECORD
  5
475
102
{ACAD_REACTORS
330
467
102
}
330
467
100
AcDbXrecord
280
     1
340
0
  0
XRECORD
  5
476
102
{ACAD_REACTORS
330
467
102
}
330
467
100
AcDbXrecord
280
     1
 70
     0
  0
XRECORD
  5
46B
102
{ACAD_REACTORS
330
467
102
}
330
467
100
AcDbXrecord
280
     1
  1

  0
XRECORD
  5
468
102
{ACAD_REACTORS
330
467
102
}
330
467
100
AcDbXrecord
280
     1
 90
        1
  0
XRECORD
  5
469
102
{ACAD_REACTORS
330
467
102
}
330
467
100
AcDbXrecord
280
     1
 90
       70
  0
XRECORD
  5
480
102
{ACAD_REACTORS
330
467
102
}
330
467
100
AcDbXrecord
280
     1
340
0
  0
XRECORD
  5
486
102
{ACAD_REACTORS
330
467
102
}
330
467
100
AcDbXrecord
280
     1
 10
0.0
 20
0.0
 30
0.0
  0
XRECORD
  5
482
102
{ACAD_REACTORS
330
467
102
}
330
467
100
AcDbXrecord
280
     1
 10
0.0
 20
0.0
 30
0.0
  0
XRECORD
  5
485
102
{ACAD_REACTORS
330
467
102
}
330
467
100
AcDbXrecord
280
     1
 10
0.0
 20
0.0
 30
0.0
  0
XRECORD
  5
483
102
{ACAD_REACTORS
330
467
102
}
330
467
100
AcDbXrecord
280
     1
 10
0.0
 20
0.0
 30
0.0
  0
XRECORD
  5
484
102
{ACAD_REACTORS
330
467
102
}
330
467
100
AcDbXrecord
280
     1
 10
0.0
 20
0.0
 30
0.0
  0
XRECORD
  5
481
102
{ACAD_REACTORS
330
467
102
}
330
467
100
AcDbXrecord
280
     1
 10
0.0
 20
0.0
 30
0.0
  0
XRECORD
  5
47E
102
{ACAD_REACTORS
330
467
102
}
330
467
100
AcDbXrecord
280
     1
340
0
  0
XRECORD
  5
47F
102
{ACAD_REACTORS
330
467
102
}
330
467
100
AcDbXrecord
280
     1
 70
     0
  0
XRECORD
  5
473
102
{ACAD_REACTORS
330
467
102
}
330
467
100
AcDbXrecord
280
     1
  1
{80394FFD-4FFF-4EE5-8DD8-5C1AE9DE3CD8}
  0
DICTIONARYVAR
  5
465
102
{ACAD_REACTORS
330
464
102
}
330
464
100
DictionaryVariables
280
     0
  1
1
  0
ENDSEC
  0
EOF
